You're looking at an archived, read-only version of our old community forum. See our new community forum here.

Devil May Cry Anime Intro

urbanninja216

Joined: Jul 30 2008

i wanna know if anyone has made/can make tabs for the devil may cry anime intro theme for classic acoustic. it may sound impossible but im sure it can be done. im a beginner guitarist and i practiced all day for a whole week and caught on pretty fast and im pretty good now but when it comes to making my own tabs, im less than a noob

heres the theme

Re: Devil May Cry Anime Intro

Mokbie

Woah?

Location: The Netherlands

Joined: Jul 30 2008

It's not mine, but I think you wouldn't mind. It's not really for a acoustic guitar, but I do it to.. and it works.. pretty much :P

INTRO:
E---------------------------8-10-11--10--8--11--10~---8-10--|
B--5/9--8------9--8~------8---------------------------------|
G----------10----------10-----------------------------------|
D-----------------------------------------------------------|
A-----------------------------------------------------------|
E-----------------------------------------------------------|


VERSE:
E---------------------------8-10-11--10--8--11--13~---11--10-----------|
B--5/9--8------9--8~------8-----------------------------------11--13~--|
G----------10----------10----------------------------------------------|
D----------------------------------------------------------------------|
A----------------------------------------------------------------------|
E----------------------------------------------------------------------|

E----------------------------|
B--13-11-9-13~--13-11-9-13~--|
G----------------------------|
D----------------------------|
A----------------------------|
E----------------------------|
----------

[img:31pt9io3]http://i5.photobucket.com/albums/y186/CrazySoldier/LuckyStar.gif[/img:31pt9io3]