You're looking at an archived, read-only version of our old community forum. See our new community forum here.

Metal Gear Solid 3 (S) Theme

mrgs

Joined: Jun 16 2008

I think it's correct. It begins in about 1'05 of the track time. Of course, it's possible to play it lower.

FILE: 530-MGS3STheme.txt

Re: Metal Gear Solid 3 (S) Theme

archard

Joined: Jan 11 2007

Erm... this tab looks a little... messed up.. ? I don't know if you intended for it to be like that but it doesn't make any sense the way it shows up on my computer.

This is what it looks like. Could you fix it up please?

E|----------------------------------2--2-0-------------2-7-0--0----0-2------------|
H|-0-2-3-0-3-3-2--0-2-3-0------------3-2-0-3--------------3------0-0------|
G|-----------------------------------------------------------------------------------3--|

E|----------------------------------2--2-0-------------2-7-0--0----0-2--7-9----|
H|-0-2-3-0-3-3-2--0-2-3-0------------3-2-0-3--------------3----------------|
G|--------------------------------------------------------------------------------------|

E|----------------------------------2----0----------------2-7-0--0-----0-2------------|
G|-0-2-3-0-3-3-2--0-2-3-0----3----3-2-0-3------------------3---------0-0----|
H|----------------------------------------------------------------------------------------3-|
----------

DANG

Re: Metal Gear Solid 3 (S) Theme

mrgs

Joined: Jun 16 2008

Do not open it with a M$ word, but with notepad, to make the doc. wider.

Re: Metal Gear Solid 3 (S) Theme

archard

Joined: Jan 11 2007

I am opening it with notepad, it still does that.

----------

DANG