You're looking at an archived, read-only version of our old community forum. See our new community forum here.

Ufouria: The Saga - Boss Theme 2

TraceTheKriken

Joined: Oct 18 2011

Tab

Song

Good tab, there was just one

auriplane

Joined: Sep 06 2008

Good tab, there was just one wrong note (was it a typo?):

e||----------------|----------------|----------------|----------------|
B||----------------|----------------|----------------|----0-----1---2-|
G||----------------|----------------|----------------|----------------|
D||----------------|--------3---5---|----------------|----------------|
A||5---5---5---3-5-|L-5-3-5---5---3-|5---5---5---3-5-|L-1---2-3---4---|
E||----------5-----|----------------|----------5-----|----------------|
                                                        ^
                                                        |
                                                        |

I changed it to:

e||----------------|----------------|----------------|----------------|
B||----------------|----------------|----------------|----0-----1---2-|
G||----------------|----------------|----------------|----------------|
D||----------------|--------3---5---|----------------|----------------|
A||5---5---5---3-5-|L-5-3-5---5---3-|5---5---5---3-5-|L-2---2-3---4---|
E||----------5-----|----------------|----------5-----|----------------|
                                                        ^
                                                        |
                                                        |
----------

Auriplane!!

http://www.gametabs.net/ufour