You're looking at an archived, read-only version of our old community forum. See our new community forum here.

SUPER MARIO BROS 2 BOSS THEME (very easy!)

victor richardi

Joined: Apr 07 2008

is there the tab:

E / -----------------------------------------------------------------------
B / -----------------------------------------------------------------------
G /------14--14-------14--14------14------14--14-------14--14------14--
D / ---12--13--13--12--13--13--12--13--12--13--13--12--13--13--12--13-
A / ----------------------------------------------------------------------
E / -----------------------------------------------------------------------

E / -----------------------------------------------------------------------
B / -----------------------------------------------------------------------
G / -------13--13-------13--13------13------13--13------13--13------13--
D / ---12--13--13--12--13--13--12--13--12--13--13--12--13--13--12--13-
A / ----------------------------------------------------------------------
E / ----------------------------------------------------------------------

E / -----------------------------------------------------------------------
B / -----------------------------------------------------------------------
G / -------16--16-------16--16------16------16--16------16--16------16--
D / ---14--15--15--14--15--15--14--15--14--15--15--14--15--15--14--15-
A / ----------------------------------------------------------------------
E / ----------------------------------------------------------------------

E / ----------------------------------------------------------------------
B / ----------------------------------------------------------------------
G / -------15--15-------15--15------15------15--15------15--15------15-
D / ---14--15--15--12--15--15--14--15--14--15--15--14--15--15--14--16-
A / ----------------------------------------------------------------------
E / ----------------------------------------------------------------------

END...

Re: SUPER MARIO BROS 2 BOSS THEME (very easy!)

archard

Joined: Jan 11 2007

Could you resubmit this in .txt form, and attach it to your post? When you post it in the body of the post like that it messes with the formatting and I can't really tell how it should look.

----------

DANG

Re: SUPER MARIO BROS 2 BOSS THEME (very easy!)

Tyrant

????

Location: rio grand city texas

Joined: Jun 11 2008

and post an midi i just in case people dont know how it sounds