You're looking at an archived, read-only version of our old community forum. See our new community forum here.

metal gear solid theme

jazz

Location: bognor regis

Joined: May 03 2008

mgs theme
e-------------------------------------------------------------------
B-------5--3---------------3--5-----5--3------------------3--5------
G---------------5---------------5---------------------5-------------
D-------------------------------------------------------------------
A-------------------------------------------------------------------
E-------------------------------------------------------------------

e-------5--3--------------------5---8------
B------------5-----3--------5--------------
G---------------5--------------------------
D------------------------------------------
A------------------------------------------
E------------------------------------------

e------7--8--10--8-------------------------7---8--7-----------------
B----------------------10----------8--10--------------10---8---10---
G-------------------------------------------------------------------
D-------------------------------------------------------------------
A-------------------------------------------------------------------
E-------------------------------------------------------------------

Repeat

e-------------------------------------------------------------------
B-------7--5---------------5--7--0--7--5-----------------5--7-------
G---------------7-------------------------------------7-------------
D-------------------------------------------------------------------
A-------------------------------------------------------------------
E-------------------------------------------------------------------

e-----7--5----------------------7---10-----
B----------7-----5----------7--------------
G-------------7----------------------------
D------------------------------------------
A------------------------------------------
E------------------------------------------

e------9--10--12--10-------------------------9--10--9-----------------
B------------------------12----------10--12---------------12---10---12
G---------------------------------------------------------------------
D---------------------------------------------------------------------
A---------------------------------------------------------------------
E---------------------------------------------------------------------

sorrie but i cant be botherd to put how long each note is, if you have played the game you should know

Re: metal gear solid theme

archard

Joined: Jan 11 2007

Wow... if you're going to rip someone else's tab you could at least try not to make it look exactly the same.

http://www.gametabs.net/playstation/met ... ex-gladwin

----------

DANG