You're looking at an archived, read-only version of our old community forum. See our new community forum here.

K.K. Slider Project?

MetalMario702

The Mario of Metal

Location: Rhode Island

Joined: Oct 27 2007

Its probably been proposed before, but who can forget our favorite guitar playing/singing dog from Animal Crossing/AC:Wild World. I was listening to the Brawl OST and found that his songs would be nice for beginners and semi-advanced players. Just wondering if thise would be a future project perhaps after the Brawl OST? Other ideas would be nice =D

Re: K.K. Slider Project?

doktai

Daniel

Location: Toronto, Canada

Joined: Jan 14 2008

I like the idea a lot, the tunes are really simple :D

Would it just be that someone posts a full songlist and everyone picks one to tab?

Re: K.K. Slider Project?

MetalMario702

The Mario of Metal

Location: Rhode Island

Joined: Oct 27 2007

ive been nosing around the web a little but i still only have the song list, and no mp3s to go with it ill keep you guys informed of any developments

Agent K.K.
Aloha K.K.
Cafe K.K.
Comrade K.K.
DJ K.K.
Forest Life
Go K.K. Rider
I Love You
Imperial K.K.
K.K. Aria
K.K. Ballad
K.K. Blues
K.K. Bossa
K.K. Calypso
K.K. Casbah
K.K. Chorale
K.K. Condor
K.K. Country
K.K. Crusin'
K.K. D & B
K.K. Dirge
K.K. Dixie
K.K. Etude
K.K. Fair
K.K. Folk
K.K. Fusion
K.K. Gumbo
K.K. Jazz
K.K. Lament
K.K. Love Song
K.K. Lullaby
K.K. Mambo
K.K. Marathon
K.K. March
K.K. Metal
K.K. Ragtime
K.K. Rally
K.K. Reggae
K.K. Rock
K.K. Rockabilly
K.K. Safari
K.K. Salsa
K.K. Samba
K.K. Ska
K.K. Song
K.K. Soul
K.K. Steppe
K.K. Swing
K.K. Tango
K.K. Technopop
K.K. Waltz
K.K. Western
King K.K.
Lucky K.K.
Marine Song 2001
Mountain Song
Mr. K.K.
My Place
Neapolitan
Only Me
Pondering
Rockin' K.K.
Senor K.K.
Soulful K.K.
Steep Hill
Surfin' K.K.
The K. Funk
To the Edge
Two Days Ago

----------

Those too weak to follow their own dreams always find a way to discourage others...
Those who think that they know everything annoy those of us that do
[img:23q2yhj0]http://offbeat-zero.net/pulse/sig/thfrbiddn1.png[/img:23q2yhj0]

Re: K.K. Slider Project?

archard

Joined: Jan 11 2007

That's a possibility after the SSBB project. I like how people other than me are interested in forming these things :D

----------

DANG

Re: K.K. Slider Project?

Jpg

Music Monkey

Location: I'm right behind you!

Joined: Apr 04 2008

I looked up Animal Crossing Playlists on Imeem and found plenty of KK rider songs.

Also look here, http://www.vgmusic.com/music/console/ni ... ex-af.html

----------

Jpg

Re: K.K. Slider Project?

MetalMario702

The Mario of Metal

Location: Rhode Island

Joined: Oct 27 2007

well we should get tabbing then =P

----------

Those too weak to follow their own dreams always find a way to discourage others...
Those who think that they know everything annoy those of us that do
[img:23q2yhj0]http://offbeat-zero.net/pulse/sig/thfrbiddn1.png[/img:23q2yhj0]

Re: K.K. Slider Project?

jakey

Joined: Dec 28 2007

kk song is easy. its just totakas song!

G|-----------------------------5-----------------------------------
D|----------------------5---------5----5--5-6-5--3----------5---
A|--3--3--5--7--5--3-----7--------------------------7----5-----3

Re: K.K. Slider Project?

Joined: Dec 31 1969

A whole load of K.K. songs are in Brawl, so I guess that would whittle down the numbers some.

Re: K.K. Slider Project?

empty-vessel

Joined: Mar 06 2009

um can sum1 plz tab me a version of k.k samba please thanks.

K.K. Bossa

K.K.Tabbist101

Joined: Jul 02 2012

Here's one of my fave K.K. Slider songs, K.K. Boosa(or K.K.'s Rhythm as it's known in Japan)I made tab for it and I hope it's ok so here you go!

E|--------------------------------------
B|-3-3--3--3-3--3-3--3-3--3--3-3--3-3---
G|-2-2--2--2-2--2-2--2-2--2--2-2--2-2---
D|-2-2--2--2-2--2-2--2-2--2--2-2--2-2---
A|--------------------------------------
E|--------------------------------------

E|-2-------------0--2-------------------
B|----3-0-3--0-3-------3-0-3--3-2-1-----
G|--------------------------------------
D|--------------------------------------
A|--------------------------------------
E|--------------------------------------

E|---0-3-2--------------2---------------
B|-1-------3---3-0--------3-0-3---------
G|-----------2--------------------------
D|--------------------------------------
A|--------------------------------------
E|--------------------------------------

E|-----0-2-3-2-0-0-3-5-7--6-2---0-2-----
B|-0-3------------------------3---------
G|--------------------------------------
D|--------------------------------------
A|--------------------------------------
E|--------------------------------------

E|-2-----------0-2----------------------
B|---3-0-3-0-3-----3-0-3--3-2-1---------
G|--------------------------------------
D|--------------------------------------
A|--------------------------------------
E|--------------------------------------

E|---0-3-2---------2--------------------
B|-1-------3---3-0---3-0-3--------------
G|-----------2--------------------------
D|--------------------------------------
A|--------------------------------------
E|--------------------------------------

E|-----0-2-3-2-0-0-3-5-7--6-2---0-2-----
B|-0-3------------------------3---------
G|--------------------------------------
D|--------------------------------------
A|--------------------------------------
E|--------------------------------------

E|-3-3-2-0-2-2-0----0-0-----------------
B|----------------3-----3-1-1-1-0-1-----
G|--------------------------------------
D|--------------------------------------
A|--------------------------------------
E|--------------------------------------

E|-------3-3-2-0-2-2-0-2-------3--------
B|-2-3-------------------3-3-2----------
G|--------------------------------------
D|--------------------------------------
A|--------------------------------------
E|--------------------------------------

E|-3--2--0--3--2--0--5--0---------------
B|-------------------------3------------
G|--------------------------------------
D|--------------------------------------
A|--------------------------------------
E|--------------------------------------

E|-2-------------0--2-------------------
B|----3-0-3--0-3--------3-0-3--3-2-1----
G|--------------------------------------
D|--------------------------------------
A|--------------------------------------
E|--------------------------------------

E|---0-3-2--------------2---------------
B|-1-------3---3-0--------3-0-3---------
G|-----------2--------------------------
D|--------------------------------------
A|--------------------------------------
E|--------------------------------------

E|-----0-2-3-2-0-0-3-5-7--6-2---0-2-----
B|-0-3------------------------3---------
G|--------------------------------------
D|--------------------------------------
A|--------------------------------------
E|--------------------------------------

----------

K.K. Jazz Lyrics; Now, Me, Oh, Me, Now, Me, Oh, Me, Now, a way ka way ca way co......