You're looking at an archived, read-only version of our old community forum. See our new community forum here.

Doom II- Into Sandy's City

zombieplasticclock

Joined: Mar 14 2008

one of my favorate game songs :mrgreen: I'd like some opinions on it (Not only to see if it's right, but also how it's done, since this is the first time I made a tab)

You can get the song here:
http://gh.ffshrine.org/song/209/9
Intro
e|------------------------------------------------------
B|------------------------------------------------------
G|------------------------------------------------------
D|--0-33--0-88--0-77--0--55---3-5-3-2------------
A|-----------------------------------------------------
E|-----------------------------------------------------

Before Chorus-thing
e|------------------------------------------------------
B|------------------------------------------------------
G|------------------------------------------------------
D|--0-22--0-77--0-88--0--55---3-5-3-2------------
A|-----------------------------------------------------
E|-----------------------------------------------------

Chorus-thing
e|------------------------------------------------------
B|------------------------------------------------------
G|------------------------------------------------------
D|--2-2-2-0---2-2-2-0---2-2-2-0---0---------------
A|-----------------------------------------------------
E|-----------------------------------------------------

Order:
Intro x4
before chorus-thing x2
intro x2
chorus-thing x1

Re: Doom II- Into Sandy's City

BluePhoenix

give me a dollar

Location: Earth, Universe A

Joined: Jan 21 2008

I read that as 33rd fret

Re: Doom II- Into Sandy's City

Joined: Dec 31 1969

"But I don't have 88 frets!"

Re: Doom II- Into Sandy's City

zombieplasticclock

Joined: Mar 14 2008

Oh, I'm sorry. It's a 3, then a 3, really close together. this is my first tab. I'll fix it:

Intro
e|---------------------------------------------------------
B|---------------------------------------------------------
G|---------------------------------------------------------
D|--0-3-3--0-8-8--0-7-7--0--5-5---3-5-3-2------------
A|----------------------------------------------------------
E|---------------------------------------------------------

Before Chorus-thing
e|----------------------------------------------------------
B|----------------------------------------------------------
G|----------------------------------------------------------
D|--0-2-2--0-7-7--0-8-8--0--5-5---3-5-3-2------------
A|---------------------------------------------------------
E|---------------------------------------------------------

Chorus-thing
e|------------------------------------------------------
B|------------------------------------------------------
G|------------------------------------------------------
D|--2-2-2-0---2-2-2-0---2-2-2-0---0---------------
A|-----------------------------------------------------
E|-----------------------------------------------------

Better?