You're looking at an archived, read-only version of our old community forum. See our new community forum here.

Portal - Still Alive

Joined: Dec 31 1969

I didn't really find the one currently up to be pleasing, so I went ahead and made my own. Acoustic for guitar I, electric (or acoustic :P) for guitar II.

JOHNATHAN COULTAN - STILL ALIVE

GUITAR I - Clean steel or nylon string acoustic

     H        E  E  E  E     W                   Q.     E  E  E  E  E   
E||-----------3--2--0--0--|--2----------------|------------3--2--0--0--|
B||-----------------------|-------------------|------------------------|
G||-----------------------|-------------------|---------2--------------|
D||-----------0--------L--|--4----------------|---------0-----------L--|
A||-----------------------|-------------------|------------------------|
E||-----------------------|-------------------|------------------------|


  E  Q.     Q    E  E     E  H.           E     Q    E  Q.     E  E   
--L--2-----------0-----|---------------------|--0----2--3------0-----|
------------3----------|---------------------|--------------------2--|
--------------------2--|--L---------------2--|-----------------------|
--------------------0--|------------------0--|--L--------------------|
-----------------------|---------------------|-----------------------|
-----------------------|---------------------|-----------------------|


  E  Q    Q.     E  E     E  Q    H        E     H        E  E  E  E   
----------0------------|-----2----------------|-----------3--2--0--0--|
--L--3-----------------|-----3----------------|-----------------------|
-----------------2--2--|--L--2----------------|-----------------------|
-----------------------|-----0----------------|-----------0-----------|
-----------------------|----------------------|-----------------------|
-----------------------|----------------------|-----------------------|


  W                   Q.     E  E  E  E  E     E  E  E  Q    E  E  E   
--2----------------|------------3--2--0--0--|--L-----2----------0-----|
-------------------|------------------------|-----------3-------------|
-------------------|---------2--------------|----------------------2--|
--4----------------|---------0--------------|--------0--0-------2--2--|
-------------------|------------------------|-------------------------|
-------------------|------------------------|-------------------------|


  E  H.           E     Q    E  Q.     E  E     Q    E  Q    E  E  E   
---------------------|--0----2--3------0-----|----------0----------0--|
---------------------|--------------------2--|--L----3----------3-----|
--L------------------|-----------------------|---------------2--------|
--L------------------|--2-------0------------|------------------------|
---------------------|-----------------------|------------------------|
---------------------|-----------------------|------------------------|


  E  E  E  Q    E  E  E     Q    Q    E  E  E  E     E  E  Q    Q    E  E   
--1--0-------------------|-------1----0-----------|------------------------|
--------3--1-------------|--1----0-------3--3--1--|--3--1--1----1----------|
-------------------2--3--|--2---------------------|------------------2--3--|
-------------------------|------------------------|--------0----0----------|
-----------0-------------|------------------------|------------------------|
-------------------------|------------------------|------------------------|


  Q    Q    E  E  E  E     E  E  Q    Q    E  E     E  E  Q    Q    E  E   
-------1----3--1--0-----|-----0--1----1----3--5--|--6--6--5----3----1--3--|
--1----0-------------3--|--3-----0----0----------|------------------------|
--2---------------------|------------------------|--------0---------------|
------------0-----------|------------------------|-------------0----------|
------------------------|------------------------|------------------------|
------------------------|------------------------|------------------------|


  E  E  Q    Q    E  E     E  E  E  Q    E  E  E     E  H.           E   
--5--5--3----1----------|--------1--0----0--2--2--|--L------------------|
------------------3--1--|--3--3-------------3--3--|---------------------|
--0--0------------------|-------------------2--2--|---------------------|
--------2----0----------|-------------------0--0--|---------------------|
------------------------|-------------------------|---------------------|
------------------------|-------------------------|---------------------|


  W                   W                   Q.     E  E  E  E  E   
-------------------|-------------------|------------3--2--0--0--|
-------------------|-------------------|------------------------|
-------------------|-------------------|---------2--------------|
-------------------|-------------------|---------0--------------|
-------------------|-------------------|------------------------|
-------------------|-------------------|------------------------|


  E  Q    H        E     H        E  E  E  E     Q    E  Q    Q    E   
--L--2----------------|-----------3--2--0--0--|--L----2-------0-------|
----------------------|-----------------------|-------3--3------------|
----------------------|-----------------------|----------0----0----2--|
-----4----------------|-----------0-----------|--------------------0--|
----------------------|-----------------------|-----------------------|
----------------------|-----------------------|-----------------------|


  E  H.           E     Q    E  Q.     Q       Q    E  Q.     E  E   
---------------------|--0----2--3------0----|----------0------------|
---------------------|----------------------|--2----3---------------|
--L------------------|----------------------|-----------------2--2--|
--L------------------|----------------------|-----------------------|
---------------------|----------------------|-----------------------|
---------------------|----------------------|-----------------------|


  E  Q    H        E     Q.     E  E  E  E  E     Q    H.            
-----2----------------|------------7--5--0--0--|--5-----------------|
----------------------|------------8--7--8--8--|--7-----------------|
--L-------------------|------------------------|--------------------|
----------------------|---------7--------------|--------------------|
----------------------|------------------------|--------------------|
----------------------|------------------------|--------------------|


  Q.     E  E  E  E  E     Q    E  Q.     E  E     E  H.           E   
------------7--5--0--0--|--L----5---------0-----|---------------------|
------------8--7--8--8--|--L----7--7------8-----|---------------------|
------------------------|----------7---------7--|--L------------------|
---------7--------------|--------------------7--|--L------------------|
------------------------|-----------------------|---------------------|
------------------------|-----------------------|---------------------|


  Q    E  Q.     Q       Q    E  Q    E  E  E     E  E  E  Q    E  E  E   
--0----2--3------0----|----------0----------0--|--1--0-------------------|
----------0-----------|--2----3----------3-----|--------3--1-------------|
--0----2--------------|---------------2--------|-------------------2--3--|
----------------------|----------0-------------|-------------------------|
----------------------|------------------------|-----------0-------------|
----------------------|------------------------|-------------------------|


  Q    Q    E  E  E  E     E  E  Q    Q    E  E     Q    Q    E  E  E  E   
-------1----0-----------|------------------------|-------1----3--1--0-----|
--1----1-------3--3--1--|--3--1--1----1----------|--1----1-------------3--|
--2---------------------|--------0----0----2--3--|--2---------0-----------|
------------------------|--------2----2----------|------------------------|
------------------------|--------3----3----------|------------------------|
------------------------|------------------------|------------------------|


  E  E  Q    Q    E  E     E  E  Q    Q    E  E     E  E  E  E  Q    E  E   
-----0--1----1----3--5--|--6--6--5----3----1--3--|--5--5--3--1--1----------|
--3-----1----1----------|------------------------|-----------1--1----3--1--|
--------2----2----------|--------0---------------|--0--0-------------------|
--------3----2----------|-------------0----------|--------0----------------|
------------------------|------------------------|-------------------------|
------------------------|------------------------|-------------------------|


  E  E  E  Q    E  E  E     E  H.           E     H        E  T E.  E  T  
--------1--0----0--2--2--|--L------------------|-----------3--L-2--------|
--3--3-------------3--3--|---------------------|-----------3--L-3---3--L-|
-------------------2--2--|---------------------|--------------------4--L-|
-------------------0--0--|---------------------|-------------------------|
-------------------------|---------------------|-------------------------|
-------------------------|---------------------|-------------------------|


  W                   H        E  E  E  E     E  Q    H        E   
-------------------|-----------3--2--0--0--|--L--2----------------|
-------------------|-----------------------|----------------------|
--2----------------|-----------------------|----------------------|
--4----------------|-----------------------|----------------------|
-------------------|-----------------------|----------------------|
-------------------|-----------------------|----------------------|


  Q.     E  E  E  E  E     Q    E  Q.     E  E     E  H.           E   
------------3--2--0--0--|--L----2---------0-----|---------------------|
------------------------|----------3------------|---------------------|
---------2--------------|--------------------2--|--L------------------|
------------------------|-----------------------|---------------------|
------------------------|-----------------------|---------------------|
------------------------|-----------------------|---------------------|


  Q    E  Q.     Q       Q    E  Q.     E  E     E  Q    H        E   
--0----2--3------0----|----------0------------|-----2----------------|
----------------------|--2----3---------------|----------------------|
----------------------|-----------------2--2--|--L-------------------|
----------------------|-----------------------|----------------------|
----------------------|-----------------------|----------------------|
----------------------|-----------------------|----------------------|


  H        E  E  E  E     E  Q    H        E     H        E  E  E  E   
-----------3--2--0--0--|--L--2----------------|-----------3--2--0--0--|
-----------5--3--2--2--|--L--3----------------|-----------5--3--2--2--|
-----------------------|----------------------|-----------------------|
-----------------------|----------------------|-----------------------|
-----------------------|----------------------|-----------------------|
-----------------------|----------------------|-----------------------|


  Q    E  Q.     E  E     Q    H.              Q    E  Q.     Q     
--L----2---------0-----|--------------------|--0----2--3------0----|
--L----3--3------2-----|--------------------|----------------------|
----------2---------2--|--L-----------------|----------------------|
--------------------4--|--L-----------------|----------------------|
-----------------------|--------------------|----------------------|
-----------------------|--------------------|----------------------|


  Q    E  Q    E  E  E     E  E  E  Q    E  E  E     Q    Q    E  E  E  E   
----------0----------0--|--1--0-------------------|-------1----0-----------|
--2----3----------3-----|--------3--1-------------|--1----1-------3--3--1--|
---------------2--------|-----------0-------2--3--|--2---------------------|
------------------------|-----------2-------------|------------------------|
------------------------|-----------3-------------|------------------------|
------------------------|-------------------------|------------------------|


  E  E  Q    Q    E  E     Q    Q    E  E  E  E     E  E  Q    Q    E  E   
------------------------|-------1----3--1--0-----|-----0--1----1----3--5--|
--3--1--1----1----------|--1----1-------------3--|--3-----0----0----------|
-------------0----2--3--|--2---------------------|--------0----0----------|
-------------2----------|------------------------|------------------------|
------------------------|------------------------|------------------------|
------------------------|------------------------|------------------------|


  E  E  E  E  Q    E  E     E  E  E  E  Q    E  E     E  E  E  Q    E  E  E   
--6--6--5--5--3----1--3--|--5--5--3--1--1----------|--------1--0----0--2--2--|
-------------------------|-----------1--1----3--1--|--3--3--0----------3--2--|
--------0--0-------------|--0--0-------------------|-----------2-------2--3--|
--------------0----------|--------0----------------|-------------------0--0--|
-------------------------|-------------------------|-------------------------|
-------------------------|-------------------------|-------------------------|


  E  H        E  E  E     E  E  E  Q    E  E  E     Q    Q.     E  E  E   
--L--------------5--5--|--7--5----------0--------|--------------5--5--5--|
-----------------------|--7-----7----------7--7--|--L--------------------|
-----------------------|-----------7----6--7--7--|--L--------------------|
-----------------------|-------------------------|-----------------------|
-----------------------|-------------------------|-----------------------|
-----------------------|-------------------------|-----------------------|


  E  E  E  Q    E  E  E     Q    Q.     E  E  E     E  E  E  Q    E  E  E   
--7--5----------0--------|--------------5--5--5--|--7--5----------0--------|
--7-----7----------7--7--|--L--------------------|--7-----7----------7--7--|
-----------7----6--7--7--|--L--------------------|-----------7----6--7--7--|
-------------------------|-----------------------|-------------------------|
-------------------------|-----------------------|-------------------------|
-------------------------|-----------------------|-------------------------|


  Q    H        E  E     E  E  E  Q    E  E  E     Q    Q.     E  E  E   
----------------5--5--|--7--5----------0--------|--------------5--5--5--|
--L-------------------|--7-----7----------7--7--|--L--------------------|
--L-------------------|-----------7----6--7--7--|--L--------------------|
----------------------|-------------------------|-----------------------|
----------------------|-------------------------|-----------------------|
----------------------|-------------------------|-----------------------|


  E  E  E  Q    E  E  E     Q    Q.     E  E  E     Q    Q.     E  E  E   
--7--5----------0--------|--------------0--5--5--|--L-----------3--2--2--|
--7-----7----------7--7--|--L-----------8--7--7--|-----------------------|
-----------7----6--7--7--|--L--------------------|-----------------------|
-------------------------|-----------------------|-----------------------|
-------------------------|-----------------------|-----------------------|
-------------------------|-----------------------|-----------------------|


  E  H        Q    E    
--L-------------------||
----------------------||
----------------------||
----------------------||
----------------------||
----------------------||

GUITAR II - Light distortion (electric)

     W                   E  E  E  E  E  E  E  E     E  E  E  E  E  E  E  E   
E||-------------------|--------2-----------2-----|--------2-----------2-----|
B||-------------------|-----3-----3-----3-----3--|-----3-----3-----3-----3--|
G||-------------------|--2-----------4-----------|--2-----------4-----------|
D||-------------------|--------------------------|--------------------------|
A||-------------------|--------------------------|--------------------------|
E||-------------------|--------------------------|--------------------------|


  E  E  E  E  E  E  E  E     E  E  E  E  E  E  E  E   
--------2-----------2-----|--------2-----------2-----|
-----3-----3-----3-----3--|-----3-----3-----3-----3--|
--2-----------4-----------|--2-----------4-----------|
--------------------------|--------------------------|
--------------------------|--------------------------|
--------------------------|--------------------------|


  E  E  E  E  E  E  E  E     E  E  E  E  E  E  E  E   
--------3-----------3-----|-----0--3--0-----0--3--0--|
-----5-----5-----5-----5--|--------------------------|
--4-----------4-----------|--2-----------2-----------|
--------------------------|--------------------------|
--------------------------|--------------------------|
--------------------------|--------------------------|

  E  E  E  E  E  E  E  E     E  E  E  E  E  E  E  E   
--------2-----------2-----|--------2-----------2-----|
-----3-----3-----3-----3--|-----3-----3-----3-----3--|
--2-----------4-----------|--2-----------4-----------|
--------------------------|--------------------------|
--------------------------|--------------------------|
--------------------------|--------------------------|

  E  E  E  E  E  E  E  E     E  E  E  E  E  E  E  E   
--------2-----------2-----|--------2-----------2-----|
-----3-----3-----3-----3--|-----3-----3-----3-----3--|
--2-----------4-----------|--2-----------4-----------|
--------------------------|--------------------------|
--------------------------|--------------------------|
--------------------------|--------------------------|

  E  E  E  E  E  E  E  E     E  E  E  E  E  E  E  E   
--------2-----------2-----|--------2-----------2-----|
-----3-----3-----3-----3--|-----3-----3-----3-----3--|
--2-----------4-----------|--2-----------4-----------|
--------------------------|--------------------------|
--------------------------|--------------------------|
--------------------------|--------------------------|

  E  E  E  E  E  E  E  E     E  E  E  E  E  E  E  E     E  E  E  E  H         
--------3-----------3-----|-----0--3--0-----0--3--0--|-----------6-----------|
-----5-----5-----5-----5--|--------------------------|-----3--6--------------|
--4-----------4-----------|--2-----------2-----------|--3--------------------|
--------------------------|--------------------------|-----------------------|
--------------------------|--------------------------|-----------------------|
--------------------------|--------------------------|-----------------------|


  W       W       W       W       W       W       W     
-------|-------|-------|-------|-------|-------|-------|
-------|-------|-------|-------|-------|-------|-------|
-------|-------|-------|-------|-------|-------|-------|
-------|-------|-------|-------|-------|-------|-------|
-------|-------|-------|-------|-------|-------|-------|
-------|-------|-------|-------|-------|-------|-------|


  E  E  E  E  E  E  E  E     E  E  E  E  E  E  E  E   
--------2-----------2-----|--------2-----------2-----|
-----3-----3-----3-----3--|-----3-----3-----3-----3--|
--2-----------4-----------|--2-----------4-----------|
--------------------------|--------------------------|
--------------------------|--------------------------|
--------------------------|--------------------------|


  E  E  E  E  E  E  E  E     E  E  E  E  E  E  E  E   
--------2-----------2-----|--------2-----------2-----|
-----3-----3-----3-----3--|-----3-----3-----3-----3--|
--2-----------4-----------|--2-----------4-----------|
--------------------------|--------------------------|
--------------------------|--------------------------|
--------------------------|--------------------------|


  E  E  E  E  E  E  E  E     E  E  E  E  E  E  E  E   
--------2-----------2-----|--------2-----------2-----|
-----3-----3-----3-----3--|-----3-----3-----3-----3--|
--2-----------4-----------|--2-----------4-----------|
--------------------------|--------------------------|
--------------------------|--------------------------|
--------------------------|--------------------------|


  E  E  E  E  E  E  E  E     E  E  E  E  E  E  E  E   
--------2-----------2-----|--------2-----------2-----|
-----3-----3-----3-----3--|-----3-----3-----3-----3--|
--2-----------4-----------|--2-----------4-----------|
--------------------------|--------------------------|
--------------------------|--------------------------|
--------------------------|--------------------------|


  E  E  E  E  E  E  E  E     E  E  E  E  E  E  E  E   
--------3-----------3-----|-----0--3--0-----0--3--0--|
-----5-----5-----5-----5--|--------------------------|
--4-----------4-----------|--2-----------2-----------|
--------------------------|--------------------------|
--------------------------|--------------------------|
--------------------------|--------------------------|


  E  E  E  E  E  E  E  E     E  E  E  E  E  E  E  E   
--------2-----------2-----|--------2-----------2-----|
-----3-----3-----3-----3--|-----3-----3-----3-----3--|
--2-----------4-----------|--2-----------4-----------|
--------------------------|--------------------------|
--------------------------|--------------------------|
--------------------------|--------------------------|


  E  E  E  E  E  E  E  E     E  E  E  E  E  E  E  E   
--------2-----------2-----|--------2-----------2-----|
-----3-----3-----3-----3--|-----3-----3-----3-----3--|
--2-----------4-----------|--2-----------4-----------|
--------------------------|--------------------------|
--------------------------|--------------------------|
--------------------------|--------------------------|

  E  E  E  E  E  E  E  E     E  E  E  E  E  E  E  E   
--------2-----------2-----|--------2-----------2-----|
-----3-----3-----3-----3--|-----3-----3-----3-----3--|
--2-----------4-----------|--2-----------4-----------|
--------------------------|--------------------------|
--------------------------|--------------------------|
--------------------------|--------------------------|


  E  E  E  E  E  E  E  E     E  E  E  E  E  E  E  E     Q.     E  E  E  E  E   
-----0--3--0-----0--3--0--|-----0--3--0-----0--3--0--|------------------------|
--0-----------0-----------|--------------------------|------------------------|
--------------------------|--2-----------2-----------|--3------3--3--3--3--3--|
--------------------------|--------------------------|------------------------|
--------------------------|--------------------------|------------------------|
--------------------------|--------------------------|------------------------|


  W       W       W       W       W       W       W     
-------|-------|-------|-------|-------|-------|-------|
-------|-------|-------|-------|-------|-------|-------|
-------|-------|-------|-------|-------|-------|-------|
-------|-------|-------|-------|-------|-------|-------|
-------|-------|-------|-------|-------|-------|-------|
-------|-------|-------|-------|-------|-------|-------|


  E  E  E  E  E  E  E  E     E  E  E  E  E  E  E  E   
--------2-----------2-----|--------2-----------2-----|
-----3-----3-----3-----3--|-----3-----3-----3-----3--|
--2-----------4-----------|--2-----------4-----------|
--------------------------|--------------------------|
--------------------------|--------------------------|
--------------------------|--------------------------|


  E  E  E  E  E  E  E  E     E  E  E  E  E  E  E  E   
--------2-----------2-----|--------2-----------2-----|
-----3-----3-----3-----3--|-----3-----3-----3-----3--|
--2-----------4-----------|--2-----------4-----------|
--------------------------|--------------------------|
--------------------------|--------------------------|
--------------------------|--------------------------|


  E  E  E  E  E  E  E  E     E  E  E  E  E  E  E  E   
--------2-----------2-----|--------2-----------2-----|
-----3-----3-----3-----3--|-----3-----3-----3-----3--|
--2-----------4-----------|--2-----------4-----------|
--------------------------|--------------------------|
--------------------------|--------------------------|
--------------------------|--------------------------|


  E  E  E  E  E  E  E  E     E  E  E  E  E  E  E  E   
--------2-----------2-----|--------2-----------2-----|
-----3-----3-----3-----3--|-----3-----3-----3-----3--|
--2-----------4-----------|--2-----------4-----------|
--------------------------|--------------------------|
--------------------------|--------------------------|
--------------------------|--------------------------|


  E  E  E  E  E  E  E  E     E  E  E  E  E  E  E  E   
-----0--3--0-----0--3--0--|-----0--3--0-----0--3--0--|
--0-----------0-----------|--------------------------|
--------------------------|--2-----------2-----------|
--------------------------|--------------------------|
--------------------------|--------------------------|
--------------------------|--------------------------|


  E  E  E  E  E  E  E  E     E  E  E  E  E  E  E  E   
--------2-----------2-----|--------2-----------2-----|
-----3-----3-----3-----3--|-----3-----3-----3-----3--|
--2-----------4-----------|--2-----------4-----------|
--------------------------|--------------------------|
--------------------------|--------------------------|
--------------------------|--------------------------|


  E  E  E  E  E  E  E  E     E  E  E  E  E  E  E  E   
--------2-----------2-----|--------2-----------2-----|
-----3-----3-----3-----3--|-----3-----3-----3-----3--|
--2-----------4-----------|--2-----------4-----------|
--------------------------|--------------------------|
--------------------------|--------------------------|
--------------------------|--------------------------|


  E  E  E  E  E  E  E  E     E  E  E  E  E  E  E  E   
--------2-----------2-----|--------2-----------2-----|
-----3-----3-----3-----3--|-----3-----3-----3-----3--|
--2-----------4-----------|--2-----------4-----------|
--------------------------|--------------------------|
--------------------------|--------------------------|
--------------------------|--------------------------|


  E  E  E  E  E  E  E  E     E  E  E  E  E  E  E  E     Q.     E  E  E  E  E   
-----0--3--0-----0--3--0--|-----0--3--0-----0--3--0--|------------------------|
--0-----------0-----------|--------------------------|------------------------|
--------------------------|--2-----------2-----------|--3------3--3--3--3--3--|
--------------------------|--------------------------|---------3--3--3--3--3--|
--------------------------|--------------------------|---------1--1--1--1--1--|
--------------------------|--------------------------|------------------------|


  H        H           H        H         
--------------------|--------------------|
--------------------|--------------------|
--------------------|--------------------|
--3-----------------|--0-----------------|
--3--------3--------|--1--------3--------|
-----------5--------|-----------5--------|


  H        H           H        H           H        H         
--------------------|--------------------|--------------------|
--------------------|--------------------|--------------------|
--------------------|--------------------|--3--------0--------|
--3-----------------|--0--------3--------|--3--------2--------|
--3--------3--------|--1--------3--------|--------------------|
-----------5--------|--------------------|--------------------|


  H        H           H        H           W                 
--------------------|--------------------|-------------------|
--------------------|--------------------|-------------------|
--2-----------------|--------------------|-------------------|
--3--------3--------|--0--------2--------|--4----------------|
-----------3--------|--1--------3--------|--5----------------|
--------------------|--------------------|-------------------|


  H        E  T E.  E  T    W                   H.           E.  T T  
-----------3--L-2--------|-------------------|-----------------------|
-----------3--L-3---3--L-|-------------------|-----------------------|
--------------------4--L-|--2----------------|--L------------L---L---|
-------------------------|--4----------------|--L------------L---L---|
-------------------------|-------------------|-----------------------|
-------------------------|-------------------|-----------------------|


  W                   H        E  T E.  E  T    W                 
-------------------|-----------3--L-2--------|-------------------|
--3----------------|--L--------3--L-3---3--L-|-------------------|
--2----------------|--L-----------------4--L-|--2----------------|
-------------------|-------------------------|--4----------------|
-------------------|-------------------------|-------------------|
-------------------|-------------------------|-------------------|


  H.           E.  T T    W                   W                 
-----------------------|-------------------|-------------------|
-----------------------|--3----------------|--L----------------|
--L------------L---L---|--2----------------|--L----------------|
--L------------L---L---|--0----------------|--L----------------|
-----------------------|-------------------|-------------------|
-----------------------|-------------------|-------------------|


  W                   W                   W                  
-------------------|-------------------|-------------------||
--L----------------|-------------------|-------------------||
--L----------------|-------------------|-------------------||
--L----------------|-------------------|-------------------||
-------------------|-------------------|-------------------||
-------------------|-------------------|-------------------||

http://drshnaps.com/useruploads/496/still_alive.txt

Re: Portal - Still Alive

archard

Joined: Jan 11 2007

Nice, I'm sure a lot of people are gonna enjoy this

http://www.gametabs.net/pc/portal/still-alive/enterim

----------

DANG