You're looking at an archived, read-only version of our old community forum. See our new community forum here.

Lost Odyssey

cippyboy

Joined: May 01 2007

It would be really cool if anyone would make any LO tab, the game has tons of cool tracks. It's practically Final Fantasy for the Xbox 360 with music from the famous Nobuo Uematsu.

Also, if you happen to know any tabs for this game anywhere, please post !

Re: Lost Odyssey

cippyboy

Joined: May 01 2007

No one played this game ?

Re: Lost Odyssey

kyoden

Joined: Mar 15 2008

i am playing it, it should be called final fantasy 12 because its the final fantasy that never was

Re: Lost Odyssey

goldsac

bass guy

Location: Niagara, Ontario

Joined: Mar 17 2008

...but there is an FF 12 already made, isn't there?

----------

He's a birdman, baby, and he won't be pigeonholed

Re: Lost Odyssey

archard

Joined: Jan 11 2007

"goldsac" posted:

...but there is an FF 12 already made, isn't there?

There is, but a lot of people consider all the FF's after FF10 to be illegitimate. Including myself to some degree.

----------

DANG

Re: Lost Odyssey

goldsac

bass guy

Location: Niagara, Ontario

Joined: Mar 17 2008

Ahh, gotcha. I still have to play 9 and 10, let alone 12.

But it makes sense, cause i haven't really heard much raving about the latest FF's in the series

----------

He's a birdman, baby, and he won't be pigeonholed

Re: Lost Odyssey

blank

glitteringprizes

Location: Vivec, Morrowind

Joined: Feb 15 2008

Oh man... I remeber LO, I'll try a crack at a song or two. BTW, you have to play FF9 man, like...now, I think it's the third best FF game pre the new generation.

----------

Shhhhhhhhhhhhhhhh!

Re: Lost Odyssey

goldsac

bass guy

Location: Niagara, Ontario

Joined: Mar 17 2008

Yeah i actually own FF9 and everything - started it and never finished it about yea-7 years ago or so now. I never had any problem with the game, and it seemed ok and all. I think i was just RPGed out! Come summertime i'll have much more time on my hands for such things :)

----------

He's a birdman, baby, and he won't be pigeonholed

Re: Lost Odyssey

kyoden

Joined: Mar 15 2008

ok...not sure how this will go down but.... the OST can be obtained here
http://www.megaupload.com/?d=96IRQZTP <====== amazing

and the tracks are in japanese, not to much use lol...heres the english..

-Tracklist-

DISC 1

1. Prologue
2. Battlefield
3. The Gun Barrel of Battle
4. Finishing Blow
5. An Immortal Life
6. Wohl Highlands
7. Battle Conditions
8. Victory
9. The Capital of Uhra
10. Neverending Journey
11. Epsylon Range
12. A Sad Tolten
13. Gangara's Plot
14. An Enemy Appears!
15. World of Ice
16. March of War
17. Crisis & Warning
18. The White Mother Ship
19. Eclipse of Time (Harp Version)
20. Numara Palace
21. The Capital of Numara
22. A Tiny Memory
23. Kelelon Forest
24. A Formidable Enemy Appears!
25. Parting Forever
26. Kaette Kuru, Kitto... (Piano Version)
27. Flashback
28. Invasion
29. A Sign of Hope
30. Theme of the Pirates
31. Yosolo
32. Tosca Village
33. The Witch's Mansion

DISC 2

1. Kaette Kuru, Kitto... (Vocal Version)
2. The Mystery of the Demon Machine
3. Escape!
4. Saman, Town of Merchants
5. The Capital of Gohtza
6. Demonic Infringement
7. The Demon-Possessed Man
8. Determination
9. Blizzard Plains
10. What You Are (Guitar Version)
11. Battle with the Demonic Beast
12. The Wanderer of Darkness
13. Great Ruins of the East
14. Dark Saint
15. The Great Voyage
16. Narrow Dimension
17. Space Distortion
18. Howl of the Departed
19. Seth's Theme
20. Light of Blessing ~ A Letter
21. What You Are (Vocal Version)
22. Main Theme
23. Eclipse of Time (Vocal Version)

got it off some ff forum someplace when i got the game
enjoy!

Re: Lost Odyssey

cippyboy

Joined: May 01 2007

"blank" posted:

Oh man... I remeber LO, I'll try a crack at a song or two. BTW, you have to play FF9 man, like...now, I think it's the third best FF game pre the new generation.

I played all FFs and finished them all (except 2,3,11), but FF9 didn't caught on to me. I even think it's bellow FF6 and FF5. I know Sakaguchi said it's his favorite FF, but mine was FF7.

My top 5 tracks from the Lost Odyssey OST are :

1. Dark Saint
2. Battle Conditions
3. Main Theme
4. A Formidable Enemy Appears!
5. The Gun Barrel of Battle

PS:You can find them all at youtube (i.e. http://youtube.com/watch?v=bv6_bDfnHGc )

Re: Lost Odyssey

gamer4250

Joined: Apr 03 2008

Ah, I've been wondering if you guys were making tabs for this schweet game. I'd like these tracks in particular:

  • Dark Saint
  • Never Ending Journey -At about 1:35 this song goes into this insanely awesome part
  • Howl of the Departed -Once you get past the first rampage of "Aaah"s, it starts getting real good

Re: Lost Odyssey

Magaman

Joined: Apr 17 2008

Hello guys!!
I've just registered because I've been searching for Lost Odyssey tabs for a little time, so I just wanna say that doing LO tabs would be so cool!
I love "What you are-Guitar version", but unfortunately i'm not good enough to tab it myself :-/
Anyway, if someone could do that, that would really kick ass ^^
And I would owe him a pint =D

Re: Lost Odyssey

archard

Joined: Jan 11 2007

I am going to try to transcribe What Are You (Guitar Version). That's a really nice acoustic guitar song and shouldn't be terribly hard to transcribe. As far as I can tell there are 3 guitars, and I can definitely tab the lead guitar. The other ones may be bit tougher, but it's a pretty clear sounding song so it should go pretty good.

----------

DANG

Re: Lost Odyssey

Kabukibear

Happy Strumming!

Location: Palm Beach Gardens, Florida

Joined: Mar 22 2007

yeah I was thinking of doing this one too, I just didn't feel like wading through all the 2nd and 3rd guitar parts.

I was listening to this ost today, I made do a few of them.

Re: Lost Odyssey

archard

Joined: Jan 11 2007

Ok, here's a VERY rough copy of the tab for the lead guitar of What You Are. I just wanna throw this in hear and see what you guys think. There's a lot more work to be done to it.

     H.            Q       W                   H        E  E  E  E   
E||---------------------|-------------------|--------------5--------|
B||---------------------|--5----------------|--L--------8-----8--5--|
G||---------------/7----|-------------------|-----------------------|
D||---------------------|-------------------|-----------------------|
A||---------------------|-------------------|-----------------------|
E||---------------------|-------------------|-----------------------|


  E  E  H.              H.            Q       W                 
---------------------|---------------------|-------------------|
--8--5---------------|---------------------|--5----------------|
--------5------------|---------------/7----|-------------------|
---------------------|---------------------|-------------------|
---------------------|---------------------|-------------------|
---------------------|---------------------|-------------------|


                                                |----3---|   
  H        E   E  E   E      E    E   H         E   E    E   
------------------8--10--|--10S--12--12--------12--11p--10--|
--L--------8--10---------|----------------------------------|
-------------------------|----------------------------------|
-------------------------|----------------------------------|
-------------------------|----------------------------------|
-------------------------|----------------------------------|


  H        H           W                    H         H         
--8--------7--------|--L----------------|----------------------|
--------------------|-------------------|----------------------|
--------------------|-------------------|--/9--------10--------|
--------------------|-------------------|----------------------|
--------------------|-------------------|----------------------|
--------------------|-------------------|----------------------|


  E    Q     E   H           H        Q     Q        Q    E   Q     E    Q     
--------------------------|----------------------|----------------------------|
--8s--10----10s--8--------|--L-------------------|----------------------------|
--------------------------|----------------------|--10----9--10----10s--12----|
--------------------------|----------------10----|----------------------------|
--------------------------|----------------------|----------------------------|
--------------------------|----------------------|----------------------------|


  H.           E  E     H        E  E  E  E     E   E  H        Q     
---------------------|-----------------------|-----------------------|
---------------------|-----------------------|-----------------------|
--9------------5--4--|--5-----------5--5--7--|--7s--9--9--------7----|
---------------------|-----------------------|-----------------------|
---------------------|-----------------------|-----------------------|
---------------------|-----------------------|-----------------------|


  H.            E   E     W                   E   Q    E   Q    Q     
-----------------------|-------------------|-------------------------|
-----------------------|-------------------|-------------------------|
-----------------------|-------------------|-------------------------|
--8------------/8--10--|--8----------------|--7--10----7--10----7----|
-----------------------|-------------------|-------------------------|
-----------------------|-------------------|-------------------------|


  E  E  H        Q       H        Q    E.  S      H.           Q     
----------------------|-----------------------|---------------------|
----------------------|--------------------8h-|--10-----------------|
--7--9--7--------7----|--9--------8----9------|----------------9----|
----------------------|-----------------------|---------------------|
----------------------|-----------------------|---------------------|
----------------------|-----------------------|---------------------|


  Q    H        E  E     E  E  E  Q.     Q       H        Q    E  E   
----------------------|-----------------------|----------------------|
--8----6--------6--5--|-----5--5--6-----------|----------------------|
----------------------|--7---------------5----|--4--------4----5--5--|
----------------------|-----------------------|----------------------|
----------------------|-----------------------|----------------------|
----------------------|-----------------------|----------------------|


                        NH                                      
  W                     W                   H         H         
-------------------|---------------------|---------------------|
-------------------|---------------------|---------------------|
--7----------------|--<>7----------------|--9--------10--------|
-------------------|---------------------|---------------------|
-------------------|---------------------|---------------------|
-------------------|---------------------|---------------------|


  E   Q     E  H           H        Q     Q        Q    E   Q     E   Q     
------------------------|----------------------|---------------------------|
--8--10----10--8--------|--L-------------------|---------------------------|
------------------------|----------------------|--10----9--10----10--12----|
------------------------|----------------10----|---------------------------|
------------------------|----------------------|---------------------------|
------------------------|----------------------|---------------------------|


  H.           E  E     H        E  E  E  E     E  E  H        Q     
---------------------|-----------------------|----------------------|
---------------------|-----------------------|----------------------|
--9------------5--4--|--5-----------5--5--7--|--7--9--9--------7----|
---------------------|-----------------------|----------------------|
---------------------|-----------------------|----------------------|
---------------------|-----------------------|----------------------|


  H.           E   E     W                   E   Q    E   Q    Q     
----------------------|-------------------|-------------------------|
----------------------|-------------------|-------------------------|
----------------------|-------------------|-------------------------|
--8------------8--10--|--8----------------|--7--10----7--10----7----|
----------------------|-------------------|-------------------------|
----------------------|-------------------|-------------------------|


  E  E  H        Q       H        Q    E.  S     H.           Q     
----------------------|----------------------|---------------------|
----------------------|--------------------8-|--10-----------------|
--7--9--7--------7----|--9--------8----9-----|----------------9----|
----------------------|----------------------|---------------------|
----------------------|----------------------|---------------------|
----------------------|----------------------|---------------------|


  Q    H.              H        Q    E  E     E  E  E  E  H         
--------------------|----------------------|-----------------------|
--8----6------------|--L-------------6--5--|-----5--5--6--L--------|
--------------------|----------------------|--7--------------------|
--------------------|----------------------|-----------------------|
--------------------|----------------------|-----------------------|
--------------------|----------------------|-----------------------|


  H        E  E  E  E     H.           Q       H        Q    E  E   
-----------------------|--------------------|----------------------|
--------------------5--|--------------------|----------------------|
--------------4--4-----|--7------------5----|--L-------------5--7--|
-----------------------|--------------------|----------------------|
-----------------------|--------------------|----------------------|
-----------------------|--------------------|----------------------|


  E  E  H.              H        Q    Q       H        Q    E    E   
---------------------|---------------------|------------------------|
---------------------|---------------------|----------------8s--10--|
--7--5--L------------|--L--------5----4----|--3--------3------------|
---------------------|---------------------|------------------------|
---------------------|---------------------|------------------------|
---------------------|---------------------|------------------------|


  Q    Q    Q    Q       Q    E   E  H           H        E  E  E  E   
----------------------|-----------------------|-----------------------|
--8-------------------|-------6s--8--6--------|--L--------------------|
-------9----7----5----|-----------------------|--------------7--6--7--|
----------------------|--7--------------------|-----------------------|
----------------------|-----------------------|-----------------------|
----------------------|-----------------------|-----------------------|


  Q    E  Q    E  E  E      Q    E   Q    E  E  E     E   E  H.            
------------------------|--------------------------|----------------------|
--5-------5-------------|--------------------------|----------------------|
-------7-------7--6--7--|--/9----7--/9----7--6--7--|--7s--9--L------------|
------------------------|--------------------------|----------------------|
------------------------|--------------------------|----------------------|
------------------------|--------------------------|----------------------|


  H        E  E  E  E     Q    E  Q    E  E  E     Q    E  Q    E  E  E   
-----------------------|------------------------|------------------------|
--------------5--5--7--|--8----7--8----7--5--7--|--8----7--8----7--5--7--|
--L--------------------|------------------------|------------------------|
-----------------------|------------------------|------------------------|
-----------------------|------------------------|------------------------|
-----------------------|------------------------|------------------------|


  E  E  H        E    E      E   E  H        Q       Q    E  Q.     Q     
-------------------------|------------------------|----------0------1----|
--7--8--L--------8s--10--|--10s--8--L-------------|--1----3--------------|
-------------------------|-------------------0----|----------------------|
-------------------------|------------------------|----------------------|
-------------------------|------------------------|----------------------|
-------------------------|------------------------|----------------------|


  E  Q    E  H           H        E  E  E  E     E   E  E  Q    E  Q     
--3--5----5--3--------|--L--------------------|-------------------------|
----------------------|--------------5--5--6--|--6s--8--8--6----L--5----|
----------------------|-----------------------|-------------------------|
----------------------|-----------------------|-------------------------|
----------------------|-----------------------|-------------------------|
----------------------|-----------------------|-------------------------|


  Q     E  H        E     E   Q    Q.     Q       Q.     Q.     Q     
-----------------------|-----------------------|---------------------|
-----------------------|--6s--8----6-----------|---------------------|
--7p----5--5-----------|------------------8----|--7------5------7----|
-----------------------|-----------------------|---------------------|
-----------------------|-----------------------|---------------------|
-----------------------|-----------------------|---------------------|


  Q     H        Q       Q    E  Q.     Q       E  Q    E  H         
----------------------|----------0------1----|--3--5----5--3--------|
----------------------|--1----3--------------|----------------------|
--7s----9--------0----|----------------------|----------------------|
----------------------|----------------------|----------------------|
----------------------|----------------------|----------------------|
----------------------|----------------------|----------------------|


  H        E  E  E  E     Q.     Q.     Q       Q    E  E  H         
--L--------------------|--7------8------7----|----------------------|
-----------------------|---------------------|--8-------------------|
--------------5--4--5--|---------------------|-------5--5--L--------|
-----------------------|---------------------|----------------------|
-----------------------|---------------------|----------------------|
-----------------------|---------------------|----------------------|


  Q.     Q.      Q       Q    E  E  H           Q.     Q.     Q     
--7------8------10----|--8-------------------|--7------8------7----|
----------------------|----------------------|---------------------|
----------------------|-------5--5--L--------|---------------------|
----------------------|----------------------|---------------------|
----------------------|----------------------|---------------------|
----------------------|----------------------|---------------------|


  Q.     Q.     Q       W                   Q     E  E   E  E   E   E   
---------------------|-------------------|-----------8--10--8--10--12--|
--8------------------|-------------------|-------10--------------------|
---------5------4----|--5----------------|-----------------------------|
---------------------|-------------------|-----------------------------|
---------------------|-------------------|-----------------------------|
---------------------|-------------------|-----------------------------|


   E  E  H        E  E     Q    H.              Q.     Q.      Q     
--10--8--L--------7--8--|--7----5------------|--7------8------10----|
------------------------|--------------------|----------------------|
------------------------|--------------------|----------------------|
------------------------|--------------------|----------------------|
------------------------|--------------------|----------------------|
------------------------|--------------------|----------------------|


  H        H           W                   H        E  E  E  E   
--8--------7--------|--8----------------|--L-----------5--------|
--------------------|-------------------|-----------8-----8--5--|
--------------------|-------------------|-----------------------|
--------------------|-------------------|-----------------------|
--------------------|-------------------|-----------------------|
--------------------|-------------------|-----------------------|


  E  E  H.              H.           Q       W                 
---------------------|--------------------|-------------------|
--8--5---------------|--------------------|--5----------------|
--------5------------|--L------------7----|-------------------|
---------------------|--------------------|-------------------|
---------------------|--------------------|-------------------|
---------------------|--------------------|-------------------|


                                               |---3---|   
  H        E   E  E   E      E   E   H         E   E   E   
------------------8--10--|--10--12--12--------12--11--10--|
--L--------8--10---------|--------------------------------|
-------------------------|--------------------------------|
-------------------------|--------------------------------|
-------------------------|--------------------------------|
-------------------------|--------------------------------|


  H        E    E   Q        W                   W                  
--8--------8s--10---L----|---L----------------|--8----------------||
-------------------------|--------------------|-------------------||
-------------------------|--------------------|-------------------||
-------------------------|--------------------|-------------------||
-------------------------|--------------------|-------------------||
-------------------------|--------------------|-------------------||
----------

DANG

Re: Lost Odyssey

Magaman

Joined: Apr 17 2008

Hello everybody!
First I wanna thank you all for making such efforts ^^'
Especially you archad for the tab :P
I'll try it this evening or tomorrow, I'll tell you what I think :P
Thanks again :)