You're looking at an archived, read-only version of our old community forum. See our new community forum here.

Lemuria - Golden Sun 2

doktai

Daniel

Location: Toronto, Canada

Joined: Jan 14 2008

Here's a tab, it's a simple song, I know, but I've only been playing for a few weeks :lol:

this song is the Lemura theme from Golden Sun 2

here's the MIDI

http://www.vgmusic.com/music/console/ni ... emuria.mid

Guitar 1


E |-0----0----------0---------0----0-----------------------------------------------------
B |---3----------3---------------3----------3-------------------------------------1-3---- 
G |---------4-5------------------------4-5----4---------------0-2-4-------4---4---------
D |------------------------------------------------2----4---4-----------2-----------------
A |-----------------------------------------------------------------------------------------
E |-----------------------------------------------------------------------------------------
repeat


Guitar 2

E |-0----------------0---------0--------------0--------0-----------1-------------------------
B |-1----------------0---------1--------------0--------1-----------3--------------1-3--------
G |-2----------------1---------2--------------0--------0-----------2------4---4-------------
D |-2----------------2---------2--------------2--------2-----------0-------------------------
A |-0----------------2---------0--------------2--------3--------------------------------------
E |-------------------0------------------------0--0----------------------0---------------------
repeat

please tell me what you think about it