You're looking at an archived, read-only version of our old community forum. See our new community forum here.

Tumbalalaika arrangement

archard

Joined: Jan 11 2007

I'm learning this song for my piano lessons, but I decided to arrange it for guitar. Pretty fun to play.

                                 Tumbalalaika                                   


Guitar
     Q    Q    Q       Q    Q    Q       Q    Q    Q       Q    Q    Q     
E||--0---------0----|--0---------0----|--0--------------|-----------------|
B||--1---------1----|--1---------1----|--1----3----1----|--0--------------|
G||-----------------|-----------------|-----------------|-----------------|
D||-------2----2----|-------2----2----|-------2----2----|-------2----2----|
A||--0--------------|--0--------------|--0--------------|-----------------|
E||-----------------|-----------------|-----------------|--4--------------|


  Q    Q    Q       Q    Q    Q       Q    Q    Q       Q    Q    Q     
-----------------|-----------------|-----------------|-----------------|
--3---------3----|--3---------3----|--3----1----0----|-----------------|
-----------------|-----------------|-----------------|--2--------------|
-------2----2----|-------2----2----|-------2----2----|-------2----2----|
-----------------|-----------------|-----------------|--0--------------|
--4--------------|--4--------------|--4--------------|-----------------|


  Q    Q    Q       Q    Q    Q       Q    Q    E  E     Q    Q    Q     
------------0----|--5---------5----|--8----7-------5--|--0---------0----|
-------1---------|-----------------|------------------|-----------------|
--2--------------|-----------------|------------------|-----------------|
-------2----2----|-----------------|------------------|-------2----2----|
--0--------------|--0----8----8----|--0----8----8-----|--0--------------|
-----------------|-----------------|------------------|-----------------|


  Q    Q    E  E     Q    Q    Q       Q    Q    Q       Q    Q    Q     
--3----1----------|-----------------|-----------------|-----------------|
---------------3--|--0---------0----|--3----1----0----|-----------------|
------------------|-----------------|-----------------|--2--------------|
-------3----3-----|-------2----2----|-------2----2----|-------2----2----|
--0---------------|-----------------|-----------------|--0--------------|
------------------|--4--------------|--4--------------|-----------------|


  Q    Q    Q       Q    Q    Q       Q    Q    E  E     Q    Q    Q     
--0----0----0----|--0----0----0----|--0---------------|-----------------|
--1----1----1----|--1----1----1----|--1----3-------1--|--0---------0----|
-----------------|-----------------|------------------|-----------------|
-------2----2----|-------2----2----|-------2----2-----|-------2----2----|
--0--------------|--0--------------|--0---------------|-----------------|
-----------------|-----------------|------------------|--4--------------|


  Q    Q    Q       Q    Q    Q       Q    Q    E  E     Q    Q    Q     
-----------------|-----------------|------------------|-----------------|
--3----3----3----|--3----3----3----|--3----1-------0--|-----------------|
-----------------|-----------------|------------------|--2---------2----|
-------2----2----|-------2----2----|-------2----2-----|-------2----2----|
-----------------|-----------------|------------------|--0--------------|
--4--------------|--4--------------|--4---------------|-----------------|


  Q    Q    Q       Q    Q    Q       Q    Q    E  E     Q    Q    Q     
------------0----|--5---------5----|--8----7-------5--|--0---------0----|
-------1---------|-----------------|------------------|-----------------|
--2--------------|-----------------|------------------|-----------------|
-------2----2----|-----------------|------------------|-------2----2----|
--0--------------|--0----8----8----|--0----8----8-----|--0--------------|
-----------------|-----------------|------------------|-----------------|


  Q    Q    E  E     Q    Q    Q       Q    Q    Q       Q    H          
--3----1----------|-----------------|-----------------|-------0--------||
---------------3--|--0---------0----|--3----1----0----|-------1--------||
------------------|-----------------|-----------------|--2-------------||
-------3----3-----|-------2----2----|-------2---------|----------------||
--0---------------|-----------------|-----------------|--0-------------||
------------------|--4--------------|--4---------4----|----------------||




Duration Legend
---------------
W - whole
H - half
Q - quarter
E - 8th
S - 16th
T - 32nd
X - 64th
. - note dotted
|-n-|  - n-tuplets

FILE: 85-tumbalalaika.zip

Re: Tumbalalaika arrangement

Stamen47

no0bzOrG

Joined: Jun 16 2007

Cool, I like this. Nice job, archard! I didn't know you were taking piano lessons. How long have you been playing/taking lessons?

----------

Is this the end of zombie Shakespeare?

Re: Tumbalalaika arrangement

archard

Joined: Jan 11 2007

Just started last week. I have some background from taking a few classes in high school and whatnot though.

----------

DANG