You're looking at an archived, read-only version of our old community forum. See our new community forum here.

pray final fantasy tactics

newplayer

Joined: May 30 2013

i took lonstile's pary tab and tweaked it to make easier for me, i was wondering if i could submit it

E||--------------------------12-------------------------------10|
B||-----------------------13-----------------------11-----------|
G||--------------10---12----------------------7-----------10----|
D||----------10------------------------8------------------------|
A||------8------------------------8-----------------------------|
E||-------------------------------------------------------------|


E||--------------------------12---13---15---13---12-------------|
B||-----------------------13--------------------------13--------|
G||--------------10---12----------------------------------------|
D||----------10-------------------------------------------------|
A||------8------------------------------------------------------|
E||-------------------------------------------------------------|

E||---------------------------------------------------------------|
B||------------------10-----8-------------------------------------|
G||--10-----12----------------------------------------------------|
D||---------------------------------------------------7-----5-----|
A||------------------------------------8-----10-------------------|
E||---------------------------------------------------------------|

E||---------------------------------------------------------------|
B||-10-----9-----------------------------10------9----------------|
G||-10-----9-----------------------------10------9----------------|
D||---------------------------------------------------------------|
A||-----------------12-----11-----------------------------12----11|
E||-----------------13-----12-----------------------------13----12|

It's different enough to post

hslesperance

Location: Walpole, MA

Joined: Aug 10 2008

It's different enough to post as it's own tab, thanks for asking permission

http://www.gametabs.net/final-fantasy-tactics/pray-0

----------

My Original Songs - https://soundcloud.com/hslesperance