You're looking at an archived, read-only version of our old community forum. See our new community forum here.

how to line up tabs

newplayer

Joined: May 30 2013

i use courier in word pad and when i try to post them here its mismatched

is there a way to post monospace text in the forums, or easy way to make tabs line up?

when you post a tabs you have

Jacob31593

Location: Tampa, FL

Joined: Jan 04 2009

when you post tabs you have to enclose them in pre tags
at the beginning of your tab place

<pre>

at the end of your tab place

</pre>

cool thanks

newplayer

Joined: May 30 2013

test

pre

e----0----------------------------------------------------
B--1---3----------------------------1--3----------1-0-----
G------------0-1-2-------0-2--2-0-2-------2-----2-----3---
D----------------------2----------------------------------
A---------------------------------------------------------
E---------------------------------------------------------

no pre
e----0----------------------------------------------------
B--1---3----------------------------1--3----------1-0-----
G------------0-1-2-------0-2--2-0-2-------2-----2-----3---
D----------------------2----------------------------------
A---------------------------------------------------------
E---------------------------------------------------------