You're looking at an archived, read-only version of our old community forum. See our new community forum here.

Dynasty Warriors - Swordsmen in the Plain

archard

Joined: Jan 11 2007

Here's the tab that someone requested. Just the lead guitar. I may do the second guitar as well.

Heres a link to the MP3 http://www.chinsoon.com/koeiwarriors/so ... 0PLAIN.mp3

Swordsmen in the Plain
Dynasty Warriors 5
 ([email protected].net)
11/4/07


This is just for the lead guitar

e----------------------------------------------
B----------------------------------------------
G------------------5--5---5-7--5-5---5-7--5-7--
D------5--5---5-8-------8----------8-----------
A--5-8------8----------------------------------
E----------------------------------------------


e----------------------------------------------
B----------------------------------------------
G------------------5--5---5-7--5-5---5-7--5----
D------5--5---5-8-------8----------8--------8--
A--5-8------8----------------------------------
E----------------------------------------------


e---------------------------------------------
B---------------------------------------------
G--12-12-12-12--10h12---12-12-12-12h14p12-15--
D---------------------------------------------====
A---------------------------------------------   |
E---------------------------------------------   |
                                                 |
                                                 | x4
e------------------------------------------      |
B------------------------------------------      |
G--12-12-12-12--10h12---15-15-15-15h17-15--      |
D------------------------------------------=======
A------------------------------------------
E------------------------------------------


e------------------------------------------
B------------------------------------------
G----------------8------------------10--8--
D--10-10-10-8-10------10-10-10-8-10--------====
A------------------------------------------   |
E------------------------------------------   |
                                              |
                                              | x2
e-----------------------------------          |
B-----------------------------------          |
G----------------8-------------10b--          |
D--10-10-10-8-10------10-10-10------===========
A-----------------------------------
E-----------------------------------


e---------------------------------------------
B---------------------------------------------
G--12-12-12-12--10h12---12-12-12-12h14p12-15--
D---------------------------------------------====
A---------------------------------------------   |
E---------------------------------------------   |
                                                 |
                                                 | x2
e------------------------------------------      |
B------------------------------------------      |
G--12-12-12-12--10h12---15-15-15-15h17-15--      |
D------------------------------------------=======
A------------------------------------------
E------------------------------------------


e-------------------------------
B--8--10--11-----11--10--8------
G---------------------------8b--
D-------------------------------
A-------------------------------
E-------------------------------


e-------------------------------
B--8------11-----10--8------8---
G-----10----------------10------
D-------------------------------
A-------------------------------
E-------------------------------


e---------------------------------------
B--8--10--11-----10--8------8--15b--13--
G-----------------------10--------------
D---------------------------------------
A---------------------------------------
E---------------------------------------


e--------------------------------
B--11--10--8------8--------8--8--
G-------------10-------10--------
D--------------------------------
A--------------------------------
E--------------------------------

Repeat solo

Then fade out with the repeated verse