You're looking at an archived, read-only version of our old community forum. See our new community forum here.

MegaMan -- ElecMan Stage

eddhead

Rock Distributor

Location: Truman, Minnesota

Joined: Jul 08 2007

These are the guitar and bass tabs for ElecMan's Stage from MegaMan (NES 1987). It was composed by Yoshihiro Sakaguchi, and totally rocks. MIDI included.

EDIT: I forgot to mention that I haven't got to play the bass tab on a bass yet (tabbed it on a guitar)... so if someone else does, it would be cool if you told me if it sounds alright.

FILE: 15-Elecman Guitar&Bass Tab.zip

Re: MegaMan -- ElecMan Stage

archard

Joined: Jan 11 2007

Only thing I would change is

e----------0-------------
B--4-----------4--2--0---
G------2-----------------
D-[1]-[1]-[1]-[1]---[0]--
A------------------------
E------------------------

Should be

e----------0-------------
B--4---2-------4--2--0---
G------------------------
D-[1]-[1]-[1]-[1]---[0]--
A------------------------
E------------------------
----------

DANG

Re: MegaMan -- ElecMan Stage

eddhead

Rock Distributor

Location: Truman, Minnesota

Joined: Jul 08 2007

Oops... yeah I think it was a typo.

EDIT: Fixed:

FILE: 24-elecman guitar&bass tab-1.zip

----------

If you take away my violent video games, I'll kill you!! I'll kill your whole freakin' family!!!

Re: MegaMan -- ElecMan Stage

archard

Joined: Jan 11 2007

Oh, I didn't notice that you put the updated version up, sorry. I'll put it up now.

----------

DANG

Re: MegaMan -- ElecMan Stage

eddhead

Rock Distributor

Location: Truman, Minnesota

Joined: Jul 08 2007

ah crap, archard. I was just looking at the tab and i realized there were a few more mistakes...

Like this:
11
e----------0-------------
B--4---2-------4--2--0-
G------------------------
D-[1]-[1]-[1]-[1]---[0]
A------------------------
E------------------------

should be this:
11
e----------0-------------
B--4---2-------4--2--0---
G-[1]-[1]-[1]-[1]---[0]--
D------------------------
A------------------------
E------------------------

Anyway... when you get a chance, could you update the guitar tab with this one:

FILE: 25-elecmanguitartab.zip

----------

If you take away my violent video games, I'll kill you!! I'll kill your whole freakin' family!!!

Re: MegaMan -- ElecMan Stage

archard

Joined: Jan 11 2007

No problem, fixed.

----------

DANG