You're looking at an archived, read-only version of our old community forum. See our new community forum here.

Hyouka OP Draft

Niall Hamilton

Niall Hamilton

Location: London

Joined: Oct 13 2012

Here's what I've got for now

-------------------------------------------------------------------------------
Yasahisa no Riyuu - Hyouka OP
-------------------------------------------------------------------------------
Tabbed by: Niall Hamilton
E-mail: [email protected]
Tuning: Eb Tuning (Half a step down)

Watch the cover here: http://www.youtube.com/watch?v=LTDla-8rxZg&feature=youtu.be

Intro:
e|----------------------3----------------------------2----------------------------------|
B|-----3-------3------3---3-------------3-------3----3----------------------------------|
G|---0---0---0---0------------0---0---0---0---0---0--2----------------------------------|
D|------------------0--------------------------------0----------------------------------|
A|-2-------3--------------------------------3-------------------------------------------|
E|--------------------------3---2---0---------------------------------------------------|

Strum these
   G  C  D  G  F# Em D  C
e|-3--3--3--3--3--3--3--3---------------------------------------------------------------|
B|-3--3--3--3--3--3--3--3---------------------------------------------------------------|
G|-0--0--2--0--0--0--2--0---------------------------------------------------------------|
D|-0--0--0--0--0--2--0--0---------------------------------------------------------------|
A|-0--3--x--0--0--2--0--3---------------------------------------------------------------|
E|-3--x--x--3--2--0--0--x---------------------------------------------------------------|

e|----------------------3---------------------------------3-------3---------------------|
B|-----3-------3------3---3-------------3--------3------3---3---3---3-------------------|
G|---0---0---0---0------------0---0---0---0----0---0------------------------------------|
D|------------------0---------------------------------0-------0-------------------------|
A|-2-------3---------------------------------2------------------------------------------|
E|--------------------------3---2---0---------------------------------------------------|

E E/F G E/F
E E/F C

Hope this helps

Watch the cover if unsure