You're looking at an archived, read-only version of our old community forum. See our new community forum here.

Mina No Peace - Tengen Toppa Gurren Lagann

Niall Hamilton

Niall Hamilton

Location: London

Joined: Oct 13 2012

http://www.gametabs.net/mina-no-peace

Here's my transcription, cover coming soon.

This isn't quite accurate.

auriplane

Joined: Sep 06 2008

This isn't quite accurate. For example, in the first two bars:

Intro: 0.12
e|-----------------------------------------------------------------------------|
B|-----------------------------------------------------------------------------|
G|-7--5--3-----7--5--3---7-5-3--5-7-5-3----------------------------------------|
D|-7--5--3--3--7--5--3---7-5-3--5-7-5-3----------------------------------------|
A|-5--3--1--3--5--3--1---5-3-1--3-5-3-1----------------------------------------|
E|----------1------------------------------------------------------------------|

Verse: 0.25
e|---------------------------------------------------------------------------| x2
B|---------------------------------------------------------------------------|
G|-----------------5---------------7---------------3-------------------------|
D|-3---------------5---------------7---------------3-------------------------|
A|-3---------------3-3-3-3-3-3-3-3-5-5-5-5-5-5-5-5-1-1-1-1-1-1-1-1-----------|
E|-1-1-1-1-1-1-1-1-----------------------------------------------------------|
----------

Auriplane!!

Re: This isn't quite accurate.

Niall Hamilton

Niall Hamilton

Location: London

Joined: Oct 13 2012

Maybe with the top piece, but are you sure with the bottom bar, I'm pretty sure it goes from F to C to D to Bb...

----------

Niall Hamilton

If you're pretty sure of

auriplane

Joined: Sep 06 2008

If you're pretty sure of that, then you're pretty sure I'm right :-)

What you wrote is F to Bb to C to D. What I wrote in red is F to C to D to Bb.

Same mistake in the third bar.

----------

Auriplane!!

Re: If you're pretty sure of

Niall Hamilton

Niall Hamilton

Location: London

Joined: Oct 13 2012

Ah, my bad. So, should I got edit that in my unapproved tabs now?

I thought the red was my tab and what was wrong with it. Yeah, your right :3

----------

Niall Hamilton

You can just post updates

auriplane

Joined: Sep 06 2008

You can just post updates here in the forum threads, since you made them.

----------

Auriplane!!

Like this? I'm still really

Niall Hamilton

Niall Hamilton

Location: London

Joined: Oct 13 2012

Like this? I'm still really new to this all, gomen.

-------------------------------------------------------------------------------
Mina no Peace - Tengen Toppa Gurren Lagann ED 2
-------------------------------------------------------------------------------
Tabbed by: Niall Hamilton
E-mail: [email protected]
Tuning: Standard

Intro: 0.12
e|-----------------------------------------------------------------------------|
B|-----------------------------------------------------------------------------|
G|-7--5--3-----7--5--3---7-5-3--5-7-5-3----------------------------------------|
D|-7--5--3--3--7--5--3---7-5-3--5-7-5-3----------------------------------------|
A|-5--3--1--3--5--3--1---5-3-1--3-5-3-1----------------------------------------|
E|----------1------------------------------------------------------------------|

Verse: 0.25
e|---------------------------------------------------------------------------| x2
B|---------------------------------------------------------------------------|
G|-----------------5---------------7---------------3-------------------------|
D|-3---------------5---------------7---------------3-------------------------|
A|-3---------------3-3-3-3-3-3-3-3-5-5-5-5-5-5-5-5-1-1-1-1-1-1-1-1-----------|
E|-1-1-1-1-1-1-1-1-----------------------------------------------------------|
Pm---------- Pm---------- Pm---------- Pm----------

Verse: 0.25
e|---------------------------------------------------------------------------| x2
B|---------------------------------------------------------------------------|
G|-----------------5---------------7---------------3-------------------------|
D|-3---------------5---------------7---------------3-------------------------|
A|-3---------------3-3-3-3-3-3-3-3-5-5-5-5-5-5-5-5-1-1-1-1-1-1-1-1-----------|
E|-1-1-1-1-1-1-1-1-----------------------------------------------------------|
Pre-Chorus: 0.42
e|---------------------------------------------------------------------------|
B|---------------------------------------------------------------------------|
G|-7--77-7--5-5-5-5--3--33-3----------Repeat Twice---3------5----------------|
D|-7--77-7--5-5-5-5--3--33-3--3-3-3-3----------------3------5----------------|
A|-5--55-5--3-3-3-3--1--11-1--3-3-3-3----------------1------3----------------|
E|----------------------------1-1-1-1----------------------------------------|

Chorus: 0.56
e|---------------------------------------------------------------------------|
B|---------------------------------------------------------------------------|
G|-7--5--3-----7--5--3-----------------3-3-3-3-3-3-3-3-5-5-5-5-5-5-5-5-5-----|
D|-7--5--3--3--7--5--3-3-3-3-3-3-3-3-3-3-3-3-3-3-3-3-3-5-5-5-5-5-5-5-5-5-----|
A|-5--3--1--3--5--3--1-3-3-3-3-3-3-3-3-1-1-1-1-1-1-1-1-3-3-3-3-3-3-3-3-3-----|
E|----------1----------1-1-1-1-1-1-1-1---------------------------------------|

e|---------------------------------------------------------------------------|
B|---------------------------------------------------------------------------|
G|-3-3-3-3-3-3-3-3-3-7-7-7-7-7-7-7-7-7-5-5-5-5-5-5-5-5-3---------------------|
D|-3-3-3-3-3-3-3-3-3-7-7-7-7-7-7-7-7-7-5-5-5-5-5-5-5-5-3---------------------|
A|-1-1-1-1-1-1-1-1-1-5-5-5-5-5-5-5-5-5-3-3-3-3-3-3-3-3-1---------------------|
E|---------------------------------------------------------------------------|

Bridge: 1.15
e|---------------------------------------------------------------------------|
B|---------------------------------------------------------------------------|
G|---------------------------------------------------------------------------|
D|-10--9--7----10---9--------------------------------------------------------|
A|-8---7--5----8----7-///----------------------------------------------------|
E|--------------------///----------------------------------------------------|

Verse: 123
e|---------------------------------------------------------------------------| x3
B|---------------------------------------------------------------------------|
G|-3-3-3-3-3-3-3-3-----------------5-5-5-5-5-5-5-5-7-7-7-7-7-7-7-7-----------|
D|-3-3-3-3-3-3-3-3-3-3-3-3-3-3-3-3-5-5-5-5-5-5-5-5-7-7-7-7-7-7-7-7-----------|
A|-1-1-1-1-1-1-1-1-3-3-3-3-3-3-3-3-3-3-3-3-3-3-3-3-5-5-5-5-5-5-5-5-----------|
E|-----------------1-1-1-1-1-1-1-1-------------------------------------------|

e|---------------------------------------------------------------------------|
B|---------------------------------------------------------------------------|
G|-3-3-3-3-3-3-3-3-----------------3-3-3-3-3-3-3-3-5-5-5-5-5-5-5-5--5--5-----|
D|-3-3-3-3-3-3-3-3-3-3-3-3-3-3-3-3-3-3-3-3-3-3-3-3-5-5-5-5-5-5-5-5--5--5-----|
A|-1-1-1-1-1-1-1-1-3-3-3-3-3-3-3-3-1-1-1-1-1-1-1-1-3-3-3-3-3-3-3-3--3--3-----|
E|-----------------1-1-1-1-1-1-1-1-------------------------------------------|

Chorus: 1.44
e|---------------------------------------------------------------------------|
B|---------------------------------------------------------------------------|
G|-7--5--3-----7--5--3-----------------3-3-3-3-3-3-3-3-5-5-5-5-5-5-5-5-5-----|
D|-7--5--3--3--7--5--3-3-3-3-3-3-3-3-3-3-3-3-3-3-3-3-3-5-5-5-5-5-5-5-5-5-----|
A|-5--3--1--3--5--3--1-3-3-3-3-3-3-3-3-1-1-1-1-1-1-1-1-3-3-3-3-3-3-3-3-3-----|
E|----------1----------1-1-1-1-1-1-1-1---------------------------------------|

e|---------------------------------------------------------------------------|
B|---------------------------------------------------------------------------|
G|-3-3-3-3-3-3-3-3-3-7-7-7-7-7-7-7-7-7-5-5-5-5-5-5-5-5-3---------------------|
D|-3-3-3-3-3-3-3-3-3-7-7-7-7-7-7-7-7-7-5-5-5-5-5-5-5-5-3---------------------|
A|-1-1-1-1-1-1-1-1-1-5-5-5-5-5-5-5-5-5-3-3-3-3-3-3-3-3-1---------------------|
E|---------------------------------------------------------------------------|

Solo: 2.02
e|---------------------------------------------------------------------------|
B|---------------------------------------------------------------------------|
G|-15b-15b-15b-15b-15b-15b-15b-15-14-15--------------------------------------|
D|-------------------------------------15-------------15---------------------|
A|----------------------------------------15h17p15h17------------------------|
E|---------------------------------------------------------------------------|

e|---------------------------------------------------------------------------|
B|--------------------17-----------------------------------------------------|
G|-14h15h17--14-15-17----13b-13b-13b-----------------------------------------|
D|-----------------------------------15--------------------------------------|
A|---------------------------------------------------------------------------|
E|---------------------------------------------------------------------------|

Ending Riff: 2.11
e|---------------------------------------------------------------------------|
B|---------------------------------------------------------------------------|
G|-------3--5--3--------3--5--3--------3--5--3--7--5--3--5--7----------------|
D|-3--3--3--5--3--3--3--3--5--3--3--3--3--5--3--7--5--3--5--7----------------|
A|-3--3--1--3--1--3--3--1--3--1--3--3--1--3--1--5--3--1--3--5----------------|
E|-1--1-----------1--1-----------1--1----------------------------------------|

----------

Niall Hamilton

Ideally you'd upload a file,

auriplane

Joined: Sep 06 2008

Ideally you'd upload a file, but that works too, I guess. If you paste it in, type <pre> before it and </pre> after it. Otherwise, it'll get formatted funny.

There's a few other parts that need work. Like for example:

Chorus: 1.44
e|---------------------------------------------------------------------------|
B|---------------------------------------------------------------------------|
G|-7--5--3-----7--5--3-----------------3-3-3-3-3-3-3-3-5-5-5-5-5-5-5-5-5-----|
D|-7--5--3--3--7--5--3-3-3-3-3-3-3-3-3-3-3-3-3-3-3-3-3-5-5-5-5-5-5-5-5-5-----|
A|-5--3--1--3--5--3--1-3-3-3-3-3-3-3-3-1-1-1-1-1-1-1-1-3-3-3-3-3-3-3-3-3-----|
E|----------1----------1-1-1-1-1-1-1-1---------------------------------------|

e|---------------------------------------------------------------------------|
B|---------------------------------------------------------------------------|
G|-------------------7-7-7-7-7-7-7-7-7-5-5-5-5-5-5-5-5-3---------------------|
D|-3-3-3-3-3-3-3-3-3-7-7-7-7-7-7-7-7-7-5-5-5-5-5-5-5-5-3---------------------|
A|-3-3-3-3-3-3-3-3-3-5-5-5-5-5-5-5-5-5-3-3-3-3-3-3-3-3-1---------------------|
E|-1-1-1-1-1-1-1-1-1---------------------------------------------------------|

This part doesn't sound right:

Bridge: 1.15
e|---------------------------------------------------------------------------|
B|---------------------------------------------------------------------------|
G|---------------------------------------------------------------------------|
D|-10--9--7----10---9--------------------------------------------------------|
A|-8---7--5----8----7-///----------------------------------------------------|
E|--------------------///----------------------------------------------------|

The E5 sounds particularly funny because of the B natural. The original song goes F5 C Bb, F5 C (not all on one guitar).

Here's what I hear in the "verse 1.23" part:

e|----------------------------------------------------------------|
B|----------------------------------------------------------------|
G|3---3-----------5---5-----------3---3-----------5---5--7--------|
D|3---3--3-3--3---5---5--3-3--3---3---3--3-3--3---5---5--7--------|
A|1---1--3-3--3---3---3--3-3--3---1---1--3-3--3---3---3--5--------|
E|-------1-1--1----------1-1--1----------1-1--1-------------------|

e|----------------------------------------------------------------|
B|----------------------------------------------------------------|
G|----3-----------5---5-----------3---3-----------5------5--------|
D|----3--3-3--3---5---5--3-3--3---3---3--3-3--3---5------5--------|
A|----1--3-3--3---3---3--3-3--3---1---1--3-3--3---3------3--------|
E|-------1-1--1----------1-1--1----------1-1--1-------------------|

You need to check the ending riff, too.

----------

Auriplane!!

Re: Ideally you'd upload a file,

Niall Hamilton

Niall Hamilton

Location: London

Joined: Oct 13 2012

I'll get to work on it, thanks :3

----------

Niall Hamilton