You're looking at an archived, read-only version of our old community forum. See our new community forum here.

Professor Layton and the Diabolical Box - Iris - End Theme

Blode4

Blode4

Joined: Aug 04 2012

Iris - End Theme

The Ending theme from Professor Layton and the Diabolical Box on the Nintendo DS. Composed by Tomohito Nashiura

A few small things There

hslesperance

Location: Walpole, MA

Joined: Aug 10 2008

A few small things

There should be a third B7 at the end here around 3:38

e|-4-----4------4--/11-9--11--12-11-9--5--4----4-6-8-6---------|
B|---6/7----6/7------------------------------6---------6--7-7--|
G|-------------------------------------------------------------|
D|-------------------------------------------------------------|
A|-------------------------------------------------------------|
E|-------------------------------------------------------------|

And the part immediately after that

Those 3 B2 should only play two times, so take one out

e|-----2-1----------------6-8-----------------9-8-6\4---6--|
B|-2h4-----4--2-2-2~----6------4/6--6\4---4-6---------6----|
G|--------------------------------------6------------------|
D|---------------------------------------------------------|
A|---------------------------------------------------------|
E|---------------------------------------------------------|

Around 4:22, the with 3 E2s in a row you originally had two.

e|-4-----4------4--11-9--2--2-2---2--4--------4--5------------1-2-4\1-----|
B|---6-7----6-7------------------------6-4-2-------6-4-2--2/4---------4~--|
G|------------------------------------------------------------------------|
D|------------------------------------------------------------------------|
A|------------------------------------------------------------------------|
E|------------------------------------------------------------------------|

If you agree I'll make those changes and post the tab

I don't think your tab is an octave low. It sounds like the same octave as the original song to me.

The tab I wrote is in the same octave as yours http://www.gametabs.net/professor-layton-and-diabolical-box/iris-end-theme

Speaking of which, you should check to see if there is already a tab before making one, no sense doing unnecessary work :)

----------

My Original Songs - https://soundcloud.com/hslesperance

Aren't those chords you're

Blode4

Blode4

Joined: Aug 04 2012

Aren't those chords you're talking about? I probably don't understand, I've been playing guitar for only 2 years.

I don't know what you mean by

hslesperance

Location: Walpole, MA

Joined: Aug 10 2008

I don't know what you mean by chords. I just posted the tab the way you originally had it

http://www.gametabs.net/professor-layton-and-diabolical-box/iris-end-the...

----------

My Original Songs - https://soundcloud.com/hslesperance