You're looking at an archived, read-only version of our old community forum. See our new community forum here.

We Are - One Piece

Ranulf

I will not join your gametabs.

Joined: Oct 15 2009

Tab
http://www.youtube.com/watch?v=oJlzNpT6nis
http://www.youtube.com/watch?v=l_-lqnLEyjA

Can someone please help with this? :O It's not completely done, but for the most part it is. I just need help with one part and probably a few corrections...I'm tired now.

Here's the part at

hslesperance

Location: Walpole, MA

Joined: Aug 10 2008

Here's the part at 1:17

---------------------------------------------------------------------------------------|
-----------6-6--------------------------------------6-6-5--5-6-8--9----9-9-9-9-8-6---6-|
--3--5--6------8--8---5--------------------3--5--6---------------------------------8---|
------------------------8-6--8--5---5--------------------------------------------------|
----------------------------------8---8-6----------------------------------------------|
---------------------------------------------------------------------------------------|

There were some mistakes but I'll wait until you are done with the whole song to correct those

----------

My Original Songs - https://soundcloud.com/hslesperance

Thanks, man! Ah, I actually

Ranulf

I will not join your gametabs.

Joined: Oct 15 2009

Thanks, man! Ah, I actually was done, since I didn't really want to tab the solos in the first link. And, then, it just repeats basically.

TabI updated it. Do you

Ranulf

I will not join your gametabs.

Joined: Oct 15 2009

Tab
I updated it. Do you have time to correct it? I wanted to record this for my brother today, but it doesn't look like that's going to happen. :O

How does this

hslesperance

Location: Walpole, MA

Joined: Aug 10 2008

How does this look?

e||------------------------------------------------------------------------|
B||------------7--------------/11------------------------------------------|
G||--5----8---------10----8----------8--6---------6----6-8----8--6---------|
D||------------------------------------------9-------9----------------9--8-|
A||------------------------------------------------------------------------|
E||------------------------------------------------------------------------|

-----------------------------------|
-----------------------------------|
--8--6---------6----6-8----6--8----|
----------9-------9--------------8-|
-----------------------------------|
-----------------------------------|

---------------------------------------------------------------------------------------------------|
---------------------------------------------------------------------------------------------------|
------8-8-----8-10----8-10-13-12-8---------------8-8------8-10--10--13--12--10-8-10-8----10-8-10-8-|
--8-8------8------------------------6-6--8-8-8-8------8-8------------------------------------------|
---------------------------------------------------------------------------------------------------|
---------------------------------------------------------------------------------------------------|

----------------------------------------------|
----------------------------------------------|
----------------------------------------------|
--8--8-6-6-5-----------11--11-10-10-8-8-----8-|
--------------8-6-6---------------------11----|
----------------------------------------------|

---------------------------------------------------------------|
---------------------------------------------------------------|
---------------------------------------------------------------|
--8--8-6-6-5----------------------8-6---6----8--8-6-6-5--------|
--------------8-6-6----6--8--9--------9------------------8-6-6-|
---------------------------------------------------------------|

------------------------------------------------------------|
------------------------------------------------------------|
-------8-8-10-7-8----8-8--8--7--5-----5---------------------|
-----------------------------------8------5-5--6--8--5------|
--6-6---------------------------------------------------8-6-|
------------------------------------------------------------|

-----------------------------------------------------------------------------------------|
-----------6-6---------------------------------------6-6-5--5--6-8--9----9-9-9-9-8-6---6-|
--3--5--6------8--8---5---------------------3--5--6----------------------------------8---|
------------------------8-6--8--5----5---------------------------------------------------|
----------------------------------8----8-6-----------------------------------------------|
-----------------------------------------------------------------------------------------|

------------------------------------------------------------------------------------|
------------------------------------------------------------------------------------|
-----8-8----8-10----8-10-13-12-8---------------8-8------8-10--10--13--12--10-8-10-8-|
--8-------8-----------------------6-6--8-8-8-8------8-8-----------------------------|
------------------------------------------------------------------------------------|
------------------------------------------------------------------------------------|

------------------------------------------------------------------------------------|
------------------------------------------------------------------------------------|
--8-8-8-8-----12-10----7-7-7-7-7-7-5--3--5--9-------8-----10--8-10-11/13--10-8-10-8-|
-----------6-------------------------------------6-----8----------------------------|
------------------------------------------------------------------------------------|
------------------------------------------------------------------------------------|

*Solos*

-------------------------------------------------------------------------------|
-------------------------------------------------------------------------------|
8--6---------6----6-8----8--6------------8--6---------6----6-8----8--6---------|
--------9-------9----------------9--8------------9-------9----------------9--8-|
-------------------------------------------------------------------------------|
-------------------------------------------------------------------------------|

----------------------------------------------|
----------------------------------------------|
----------------------------------------------|
--8--8-6-6-5-----------11--11-10-10-8-8-----8-|
--------------8-6-6---------------------11----|
----------------------------------------------|

---------------------------------------------------------------|
---------------------------------------------------------------|
---------------------------------------------------------------|
--8--8-6-6-5----------------------8-6---6----8--8-6-6-5--------|
--------------8-6-6----6--8--9--------9------------------8-6-6-|
---------------------------------------------------------------|

------------------------------------------------------------|
------------------------------------------------------------|
-------8-8-10-7-8----8-8--8--7--5-----5---------------------|
-----------------------------------8------5-5--6--8--5------|
--6-6---------------------------------------------------8-6-|
------------------------------------------------------------|

-----------------------------------------------------------------------------------------|
-----------6-6---------------------------------------6-6-5--5--6-8--9----9-9-9-9-8-6---6-|
--3--5--6------8--8---5---------------------3--5--6----------------------------------8---|
------------------------8-6--8--5----5---------------------------------------------------|
----------------------------------8----8-6-----------------------------------------------|
-----------------------------------------------------------------------------------------|

||------------------------------------------------------------------------------------|
||------------------------------------------------------------------------------------|
||*----8-8----8-10----8-10-13-12-8---------------8-8------8-10--10--13--12--10-8-10-8-|
||*-8-------8-----------------------6-6--8-8-8-8------8-8-----------------------------|
||------------------------------------------------------------------------------------|
||------------------------------------------------------------------------------------|

-------------------------------------------------------------------------------------||
-------------------------------------------------------------------------------------||
--8-8-8-8-----12-10----7-7-7-7-7-7-5--3--5--9-------8-----10--8-10-11/13--10-8-10-8-*||
-----------6-------------------------------------6-----8----------------------------*||
-------------------------------------------------------------------------------------||
-------------------------------------------------------------------------------------||
----------

My Original Songs - https://soundcloud.com/hslesperance

Looks good! Thanks a bunch!

Ranulf

I will not join your gametabs.

Joined: Oct 15 2009

Looks good! Thanks a bunch! :D

http://www.gametabs.net/one-p

hslesperance

Location: Walpole, MA

Joined: Aug 10 2008

http://www.gametabs.net/one-piece/we-are-0

----------

My Original Songs - https://soundcloud.com/hslesperance

I decided to work on the

Ranulf

I will not join your gametabs.

Joined: Oct 15 2009

I decided to work on the guitar solo after all, but not the sax solo. Here's what I got

--/18----15--16--18----15-16-------------------------------------------------
--------------------18-------18-------------16----16-12-----14-11------------
--------------------------------------------------------11--------10----12b?-
-----------------------------------18-17-18----------------------------------
-----------------------------------------------------------------------------
-----------------------------------------------------------------------------

I'm not sure if I can figure out the rest :O