You're looking at an archived, read-only version of our old community forum. See our new community forum here.

Gun - Hunting With Ned and Prelude to the Steamboat

lordsartek

Joined: Jan 24 2011

First time submitting here so hopefully im doing it right
tab:
Gun-Hunting With Ned tab

Song can be heard from:
youtube song

Can you look at everything

hslesperance

Location: Walpole, MA

Joined: Aug 10 2008

Can you look at everything from 0:40 to 1:45 again. It sounds different to me.

Here is the first part:

0:40
  Em                           Bm
E---------------------------10-------------------8----9--|
B-----8--8--8--8--8--8--8-------8--8--8--8--7--7---10----|
G-------9--9--9--9--9--9--9-------9--9--9--9--9----------|
D--------------------------------------------------------|
A-0h2----------------------------------------------------|
E--------------------------------------------------------|

And is this meant to be a transcription or an arrangement for solo guitar? Becuase it sounds like there are two different guitars in the original song.

Like at the beginning, it sounds like one guitar playing the chords you wrote, while another plays:

E------------|
B-------3-5--|
G--2/4-------|
D------------|
A------------|
E------------|
----------

My Original Songs - https://soundcloud.com/hslesperance