You're looking at an archived, read-only version of our old community forum. See our new community forum here.

You're Not Alone! ~ Final Fantasy IX

wayfaerer

"Embrace your dreams."

Location: The Lifestream

Joined: Apr 03 2011

You're Not Alone!

only real difference with this tab than others lurkin around is im gonna add harmonies and slides and bends and all that jazz. also, towards the end, where the "rockier" part kicks in, i plan to include powerchords for a third guitar, and thats where ill really need a little assistance.

What kind of assistance do

hslesperance

Location: Walpole, MA

Joined: Aug 10 2008

What kind of assistance do you want?

BTW, on the second staff this bold note is correct

|-----------------------------0--0-0-0-----------------------|
|--1------------1-1-1-0-----0----------3-1--1-0---1-0--------|
|-----2--0-2------------2-0---------------------2-----2-0-2~-|
|------------2-----------------------------------------------|
|------------------------------------------------------------|
|------------------------------------------------------------|
----------

My Original Songs - https://soundcloud.com/hslesperance

awesome hsl, thanks man! i

wayfaerer

"Embrace your dreams."

Location: The Lifestream

Joined: Apr 03 2011

awesome hsl, thanks man! i like the way that sounds

and, the assistance i need is, what powerchords would be suitable for the section where the chanting kicks in? i guess the "solo" section, is a suitable name on it.

----------

"i seem to be find a lot that apparently dont contain the .exe actually" -Anonymous

"Has anyone really been far as decided to use even go want to look more like?" -Pherioxus

For the power chord thing, a

auriplane

Joined: Sep 06 2008

For the power chord thing, a lot of the time you can base them on the bass part. I made a bass tab for this a while ago:

http://www.gametabs.net/final-fantasy-ix/youre-not-alone

Here's the distorted stuff I'd play over that part:

e |----------------|----------------|----------------|----------------|
B |----------------|----------------|----------------|----------------|
G |----------------|2-------2-------|----------------|4---------------|
D |2-------5-------|0-------3-------|2-------5-------|2---------------|
A |0-------3-------|----------------|0-------3-------|----------------|
E |----------------|----------------|----------------|----------------|
                                                      First ending
e |----------------|----------------|----------------|----------------|
B |----------------|----------------|----------------|----------------|
G |----------------|5---5---2-------|2-------4-------|2---------------|
D |--------5-------|3---2---0---5---|0-------2-------|3-----------5-5-|
A |3-------3-------|------------3---|----------------|------------3-2-|
E |1---------------|----------------|----------------|----------------|
                                                      Second ending
                                                     |----------------|
                                                     |----------------|
                                                     |----------------|
                                                     |2---------------|
                                                     |0---------------|
                                                     |----------------|
----------

Auriplane!!