You're looking at an archived, read-only version of our old community forum. See our new community forum here.

Gradius III - Cosmo Plant

Brainsick Fungus

Minstrel of the Fungal Funk

Joined: Apr 24 2009

I'm not eloquent enough to put into words how awesome this song is. Please give it a listen and see for yourself. I hope you enjoy it.
Tab
Original

actually i think the use of

wayfaerer

"Embrace your dreams."

Location: The Lifestream

Joined: Apr 03 2011

actually i think the use of the word eloquent defines eloquence.

good stuff, youre a fun guy!

----------

"i seem to be find a lot that apparently dont contain the .exe actually" -Anonymous

"Has anyone really been far as decided to use even go want to look more like?" -Pherioxus

Video removed, and some of

BacardiBreezer

My life is a chip in your pile. Ante up!

Location: NE Ohio

Joined: Aug 16 2010

Video removed, and some of that could be adjusted for playability...

new link Thanks, Wayfaerer.

Brainsick Fungus

Minstrel of the Fungal Funk

Joined: Apr 24 2009

new link

Thanks, Wayfaerer. I'm glad to hear you like it.

What should be adjusted for playablity BacardiBreezer? I try to submit tabs with the frets optimized for maximum playablity, of course what I find easiest may not be easiest for everyone due to different play styles(and the fact that I'm an amateur. still I'd like to hear your suggestions. Thanks

I'm not sure what parts

hslesperance

Location: Walpole, MA

Joined: Aug 10 2008

I'm not sure what parts bacardi had trouble with, but maybe you could change the last 3 staffs a bit like this:

e-------15-------------------15-------------------------------------------------|
B-17-18-----18-17-15---17-18-----18-17-----15-17-18--16-15----------------------|
G--------------------------------------17------------------17-------------------|
D-------------------------------------------------------------------------------|
A-------------------------------------------------------------------------------|
E-------------------------------------------------------------------------------|

e--------------------12--15------------------15---------------------------------|
B--13-15-17------13----------18-17-15--17-18-----18-17--------------------------|
G------------12----------------------------------------17-----------------------|
D-------------------------------------------------------------------------------|
A-------------------------------------------------------------------------------|
E-------------------------------------------------------------------------------|

e-----------------15-----15-17--------20----------------------------------------|
B-15-17-18-----18------------------18-------------------------------------------|
G-----------17--------15--------17----------------------------------------------|
D-------------------------------------------------------------------------------|
A-------------------------------------------------------------------------------|
E-------------------------------------------------------------------------------|
----------

My Original Songs - https://soundcloud.com/hslesperance

I like those changes. Here

Brainsick Fungus

Minstrel of the Fungal Funk

Joined: Apr 24 2009

I like those changes. Here you go!

http://www.gametabs.net/gradi

hslesperance

Location: Walpole, MA

Joined: Aug 10 2008

http://www.gametabs.net/gradius-iii/cosmo-plant

----------

My Original Songs - https://soundcloud.com/hslesperance