You're looking at an archived, read-only version of our old community forum. See our new community forum here.

Earthbound - The Unforgiving Desert

iamHoustonian

You don’t need to see my identification…

Location: Jacksonville, Fl

Joined: Oct 03 2011

Been stabbing at this song today. I want to smack a beautiful UFO with Ness' bat hehe.
Plays in the desert map outside of The Dungeon Man/Pyramid.
The Unforgiving Desert
http://www.youtube.com/watch?v=pbuZ0hmpL4c
It seems okay but it definitely needs some work. Opinions needed, thanks =^.^=

Crappy

iamHoustonian

You don’t need to see my identification…

Location: Jacksonville, Fl

Joined: Oct 03 2011

I'm working on the part that plays in the very beginning and in the background.
The more I play this tab the crappier it sounds hehe
I dunno about this one.

Here's the Beginning

iamHoustonian

You don’t need to see my identification…

Location: Jacksonville, Fl

Joined: Oct 03 2011

Here's the Beginning :-)
The Unforgiving Desert(Background)

Look at the four fast notes

hslesperance

Location: Walpole, MA

Joined: Aug 10 2008

Look at the four fast notes at the beginning of each staff. You had the frets going down one at a time.

The Unforgiving Desert
Earthbound
Composers: Keiichi Suzuki, Hirokazu Tanaka, and Hiroshi Kanazu
Tabbed by: iamHoustonian
Date Tabbed: 11/14/2011




Guitar I (A)
e----------------------------------------------------------------------------
B----------------------------------------------------------------------------
G-17--16-17-16-14------14----------------------------14----------17--16------
D------------------15------17------------14--15--17------14--17----------17--
A------------------------------17----17--------------------------------------
E----------------------------------------------------------------------------

e----------------------------------------------------------------------------
B----------------------------------------------------------------------------
G-17--16-17-16-14------14----------------------------14----------17--16--19--
D------------------15------17------------14--15--17------14--17--------------
A------------------------------17----17--------------------------------------
E----------------------------------------------------------------------------

                                  OR
Guitar I (B)
e----------------------------------------------------------------------------
B-13--12-13-12-10------10---------------------------10---------13--12--------
G------------------10------12------------9--10--12------9--12----------12----
D------------------------------12----12--------------------------------------
A----------------------------------------------------------------------------
E----------------------------------------------------------------------------

e----------------------------------------------------------------------------
B-13--12-13-12-10------10---------------------------10---------13--12--15----
G------------------10------12------------9--10--12------9--12----------------
D------------------------------12----12--------------------------------------
A----------------------------------------------------------------------------
E----------------------------------------------------------------------------





Guitar II (A)

Plays simultaneously with Guitar I
e----------------------------------------------------------------------------
B----------------------------------------------------------------------------
G----------------------------------------------------------------------------
D-10--9-10-9-7-----7--------------------------7---------10--9----------------
A---------------8-----10------------7--8--10-----7--10---------10------------
E-------------------------10----10-------------------------------------------

e----------------------------------------------------------------------------
B----------------------------------------------------------------------------
G----------------------------------------------------------------------------
D-10--9-10-9-7-----7--------------------------7---------10--9--12------------
A---------------8-----10------------7--8--10-----7--10-----------------------
E-------------------------10----10-------------------------------------------

                             OR
Guitar II (B)
e----------------------------------------------------------------------------
B----------------------------------------------------------------------------
G-5--4-5-4-2-----2----------------------2--------5--4------------------------
D-------------3-----5----------2--3--5-----2--5--------5---------------------
A----------------------5----5------------------------------------------------
E----------------------------------------------------------------------------

e----------------------------------------------------------------------------
B------------------------------------------------------3---------------------
G-5--4-5-4-2-----2----------------------2--------5--4------------------------
D-------------3-----5----------2--3--5-----2--5------------------------------
A----------------------5----5------------------------------------------------
E----------------------------------------------------------------------------




Cool Interlude 

Play with a quick delay? Not too sure about this part.

Guitar I
e--------------------
B--------------------
G-18--17-18-17-15----
D--------------------
A--------------------
E--------------------

Guitar II
e--------------------
B--------------------
G--------------------
D-11--10-11-10-8-----
A--------------------
E--------------------

I think the bass sounds fine

----------

My Original Songs - https://soundcloud.com/hslesperance

Re: Look at the four fast notes

iamHoustonian

You don’t need to see my identification…

Location: Jacksonville, Fl

Joined: Oct 03 2011

I think that part is what was sounding off.
Those couple of notes make a big difference. Thanks for the help man *Humbly bows.
I'm going to piece it all together now for a submission.