You're looking at an archived, read-only version of our old community forum. See our new community forum here.

Chrono Trigger - Lavos Core

BacardiBreezer

My life is a chip in your pile. Ante up!

Location: NE Ohio

Joined: Aug 16 2010

Lavos Core

http://www.youtube.com/watch?v=CAx63FwVWUo

Added a bottom note on the

hslesperance

Location: Walpole, MA

Joined: Aug 10 2008

Added a bottom note on the chords in staff 3 and 4

Guitar 1 

Rest 16 measures

e|-----------------------------|------------------------------|
B|-----------------8~-----7~---|----------------8~-----10~----|
G|---9~-----7~-----------------|--9~-----7~-------------------|
D|-----------------------------|------------------------------|      \
A|-----------------------------|------------------------------|       \
E|-----------------------------|------------------------------|        \
                                                                       x2
e|-----------------------------|------------------------------|       /
B|-----------------------------|--------------------------9~--|      /
G|--8~-------------11~----10~--|---8~-------------11~---------|     /
D|---------11~-----------------|----------11~-----------------|
A|-----------------------------|------------------------------|
E|-----------------------------|------------------------------|

e|-----------------------------|------------------------------|
B|-----------------------------|------------------------------|
G|--------7-----6-----5--------|--------------L---------------|
D|--------7-----6-----5--------|--------------L---------------|
A|-----------------------------|------------------------------|
E|-----------------------------|------------------------------|

e|--11~-------13~--------------|------------------------------|
B|--11~-------13~--------13~---|--------------L---------------|
G|-----------------------12~---|--------------L---------------|
D|-----------------------------|------------------------------|
A|-----------------------------|------------------------------|
E|-----------------------------|------------------------------| x2




Guitar 2 - Rhythm

e|------------------|------------------|------------------|-------------------|
B|------------------|------------------|------------------|-------------------|
G|------------------|------------------|------------------|-------------------|
D|--------0-----2---|--------0-----2---|--------0-----2---|--------0-----2----|
A|----0-2---0-2---2-|----0-2---0-2---2-|----0-2---0-2---2-|----0-2---0-2---2--|
D|--2---------------|--2---------------|--2---------------|--2----------------| x2

e|------------------|------------------|------------------|-------------------|
B|------------------|------------------|------------------|-------------------|
G|------------------|------------------|------------------|-------------------|
D|--------------1---|--------------1---|--------------1---|--------------1----|
A|------1-4---1---1-|------1-4---1---1-|------1-4---1---1-|------1-4---1---1--|
D|--1-6-----6-------|--1-6-----6-------|--1-6-----6-------|--1-6-----6--------| x2

e|------------------|------------------|------------------|-------------------|
B|------------------|------------------|------------------|-------------------|
G|------------------|------------------|------------------|-------------------|
D|--------0-----2---|--------0-----2---|--------0-----2---|--------0-----2----|
A|----0-2---0-2---2-|----0-2---0-2---2-|----0-2---0-2---2-|----0-2---0-2---2--|
D|--2---------------|--2---------------|--2---------------|--2----------------| x2

e|------------------|------------------|------------------|-------------------|
B|------------------|------------------|------------------|-------------------|
G|------------------|------------------|------------------|-------------------|
D|--------------1---|--------------1---|--------------1---|--------------1----|
A|------1-4---1---1-|------1-4---1---1-|------1-4---1---1-|------1-4---1---1--|
D|--1-6-----6-------|--1-6-----6-------|--1-6-----6-------|--1-6-----6--------| x2

e|------------------|------------------|------------------|-------------------|
B|------------------|------------------|------------------|-------------------|
G|------------------|------------------|------------------|-------------------|
D|--------0-----2---|--------0-----2---|--------0-----2---|--------0-----2----|
A|----0-2---0-2---2-|----0-2---0-2---2-|----0-2---0-2---2-|----0-2---0-2---2--|
D|--2---------------|--2---------------|--2---------------|--2----------------| x2

e|------------------|------------------|------------------|-------------------|
B|------------------|------------------|------------------|-------------------|
G|------------------|------------------|------------------|-------------------|
D|--------------1---|--------------1---|--------------1---|--------------1----|
A|------1-4---1---1-|------1-4---1---1-|------1-4---1---1-|------1-4---1---1--|
D|--1-6-----6-------|--1-6-----6-------|--1-6-----6-------|--1-6-----6--------| x2

e|--------------------------------------------|
B|--------------------------------------------|
G|--------------------------------------------|
D|----0--------0------------------------------|
A|-------0--2--------------4-----1--4---------|
D|----------------------------6---------------|

e|-----------------------------------|------------------------------------|
B|-----------------------------------|------------------------------------|
G|-----------------------------------|------------------------------------|
D|-----------------------------------|------------------------------------|
A|--3------1-----3------1------3-----|--3------1-----3------1------3------|
D|----3-5----3-5----3-5---3--5---3-5-|----3-5----3-5----3-5---3--5---3-5--| x5

For guitar 2 I made it drop D to play that low Eb. This makes the fingering kind of awkward. Maybe you can change the tuning to DADFAD (full step down) so this:

e|------------------|
B|------------------|
G|------------------|
D|--------------1---|
A|------1-4---1---1-|
D|--1-6-----6-------|
Becomes this:

D|------------------|
A|------------------|
F|------------------|
D|--------------3---|
A|------3-6---3---3-|
D|--1-6-----6-------|
----------

My Original Songs - https://soundcloud.com/hslesperance

You mean DGCFAD? DADFAD is

auriplane

Joined: Sep 06 2008

You mean DGCFAD? DADFAD is open D minor.

The soundtrack title for this song is Last Battle.

----------

Auriplane!!

Ooh, I don't know anything

BacardiBreezer

My life is a chip in your pile. Ante up!

Location: NE Ohio

Joined: Aug 16 2010

Ooh, I don't know anything about changing tunings, lol. But yeah that would work for the rhythm guitar.

Right, I meant DGC, not DAD,

hslesperance

Location: Walpole, MA

Joined: Aug 10 2008

Right, I meant DGC, not DAD, thanks

http://www.gametabs.net/chrono-trigger/last-battle

----------

My Original Songs - https://soundcloud.com/hslesperance

How about

auriplane

Joined: Sep 06 2008

How about this?

D|------------------|
A|------------------|
F|------------------|
C|--------1-----3---|
G|----1-3---1-3---3-|
D|--1---------------|
----------

Auriplane!!

I actually changed it before

hslesperance

Location: Walpole, MA

Joined: Aug 10 2008

I actually changed it before seeing your comment ^-^

----------

My Original Songs - https://soundcloud.com/hslesperance

:-D

auriplane

Joined: Sep 06 2008

:-D

----------

Auriplane!!

:thumbup: thanks you two

BacardiBreezer

My life is a chip in your pile. Ante up!

Location: NE Ohio

Joined: Aug 16 2010

:thumbup: thanks you two