You're looking at an archived, read-only version of our old community forum. See our new community forum here.

Brain Lord- Dragon Legend

iamHoustonian

You don’t need to see my identification…

Location: Jacksonville, Fl

Joined: Oct 03 2011

I need a little help with the rhythm part.
Brain Lord has got some pretty rad music!!
Dragon Legend
http://www.youtube.com/watch?v=eEJMiO3S-JQ

Melody is good,

auriplane

Joined: Sep 06 2008

Melody is good, except:

e------------------------------------------
B-----------8----------8-10----8-----------
G--------7-----9----10--------------10-----
D--8--8------------------------------------
A------------------------------------------
E------------------------------------------

I moved that 10 up a string. I imagine you heard it right, then wrote it down on the wrong string? :-D

Haven't looked at the rhythm part you've got yet, give me a few.

----------

Auriplane!!

Re: Melody is good,

iamHoustonian

You don’t need to see my identification…

Location: Jacksonville, Fl

Joined: Oct 03 2011

Woops. I did write it down wrong. I fixed it.
Its kind of hard to hear the rhythm but it sounds like there's more than just the two I have at the top of my tab.

I got: e

auriplane

Joined: Sep 06 2008

I got:

e |----------------|----------------|----------------|----------------|
B |10--10--10--10--|10--10--10--10--|8---8---8---8---|10--10--8---8---|
G |10--10--10--10--|10--10--10--10--|9---9---9---9---|10--10--9---9---|
D |--12--12--12--12|--12--12--12--12|--10--10--10--10|--10--10--10--10|
A |----------------|----------------|----------------|----------------|
E |----------------|----------------|----------------|----------------|


e |----------------|----------------|----------------|----------------|
B |10--10--10--10--|10--10--10--10--|8---8---8---8---|10--10--10--10--|
G |10--10--10--10--|10--10--10--10--|9---9---9---9---|10--10--10--10--|
D |--12--12--12--12|--12--12--12--12|--10--10--10--10|--12--12--12--12|
A |----------------|----------------|----------------|----------------|
E |----------------|----------------|----------------|----------------|


e |----------------|----------------|----------------|----------------|
B |----------------|8---8---8---8---|10--10--8---8---|10--10--10--10--|
G |10--10--10--10--|9---9---9---9---|10--10--9---9---|10--10--10--10--|
D |12--12--12--12--|--10--10--10--10|--10--10--10--10|--12--12--12--12|
A |--13--13--13--13|----------------|----------------|----------------|
E |----------------|----------------|----------------|----------------|


e |----------------|----------------|----------------|----------------|
B |----------------|8---8---8---8---|10--10--10--10--|10--10--10--10--|
G |10--10--10--10--|9---9---9---9---|10--10--10--10--|10--10--10--10--|
D |12--12--12--12--|--10--10--10--10|--12--12--12--12|--12--12--12--12|
A |--13--13--13--13|----------------|----------------|----------------|
E |----------------|----------------|----------------|----------------|
----------

Auriplane!!

Oh, I forgot to write: the

auriplane

Joined: Sep 06 2008

Oh, I forgot to write: the second half repeats, so I'd put a big 2x to the right of that whole part. Like this:

e |----------------|----------------|----------------|----------------|
B |10--10--10--10--|10--10--10--10--|8---8---8---8---|10--10--8---8---|
G |10--10--10--10--|10--10--10--10--|9---9---9---9---|10--10--9---9---|
D |--12--12--12--12|--12--12--12--12|--10--10--10--10|--10--10--10--10|
A |----------------|----------------|----------------|----------------|
E |----------------|----------------|----------------|----------------|


e |----------------|----------------|----------------|----------------|
B |10--10--10--10--|10--10--10--10--|8---8---8---8---|10--10--10--10--|
G |10--10--10--10--|10--10--10--10--|9---9---9---9---|10--10--10--10--|
D |--12--12--12--12|--12--12--12--12|--10--10--10--10|--12--12--12--12|
A |----------------|----------------|----------------|----------------|
E |----------------|----------------|----------------|----------------|


e |----------------|----------------|----------------|----------------| \
B |----------------|8---8---8---8---|10--10--8---8---|10--10--10--10--|  \
G |10--10--10--10--|9---9---9---9---|10--10--9---9---|10--10--10--10--|   |
D |12--12--12--12--|--10--10--10--10|--10--10--10--10|--12--12--12--12|   |
A |--13--13--13--13|----------------|----------------|----------------|   |
E |----------------|----------------|----------------|----------------|   |
                                                                           \ 2x
                                                                           /
e |----------------|----------------|----------------|----------------|   |
B |----------------|8---8---8---8---|10--10--10--10--|10--10--10--10--|   |
G |10--10--10--10--|9---9---9---9---|10--10--10--10--|10--10--10--10--|   |
D |12--12--12--12--|--10--10--10--10|--12--12--12--12|--12--12--12--12|   |
A |--13--13--13--13|----------------|----------------|----------------|  /
E |----------------|----------------|----------------|----------------| /
----------

Auriplane!!

Re: I got:e

iamHoustonian

You don’t need to see my identification…

Location: Jacksonville, Fl

Joined: Oct 03 2011

Wow. That was fast hehe =^.^=.
If you don't mind I'll put that in my tab but give you credit on it.
It sounds awesome!!

Sure, go for it :-)

auriplane

Joined: Sep 06 2008

Sure, go for it :-)

----------

Auriplane!!

Cool thanks.

iamHoustonian

You don’t need to see my identification…

Location: Jacksonville, Fl

Joined: Oct 03 2011

Cool thanks. I guess I'll put it up for submission then.