You're looking at an archived, read-only version of our old community forum. See our new community forum here.

Vandal Hearts- bygone Days 1 (Leena's Annihilation)

iamHoustonian

You don’t need to see my identification…

Location: Jacksonville, Fl

Joined: Oct 03 2011

Bygone Days
Hi, I'm having a little difficulty understanding all of the submission requirements. I used notepad for a couple of Vandal Hearts songs, but I'm not sure if i am uploading the file correctly. Please be humbled by my newbieness and help me out. lol :-) Grazie

here's what it sounds like

iamHoustonian

You don’t need to see my identification…

Location: Jacksonville, Fl

Joined: Oct 03 2011

Bygone Days 1 vid

Could you reupload the file

hslesperance

Location: Walpole, MA

Joined: Aug 10 2008

Could you reupload the file since you figured out how to do it with your Vicissitudes of Fortune tab?

----------

My Original Songs - https://soundcloud.com/hslesperance

Re: Could you reupload the file

iamHoustonian

You don’t need to see my identification…

Location: Jacksonville, Fl

Joined: Oct 03 2011

i uploaded my Bygone days 1 tab file to submissions. did you want me to upload it to works in progress again first?

Sounds good, except this one

auriplane

Joined: Sep 06 2008

Sounds good, except this one note toward the end of the second guitar part:

e-------------------------------------------------------------
B-12--------11----9----11----12----14----16---------11--------
G---------------------------------------------15----------11--
D-------------------------------------------------------------
A-------------------------------------------------------------
E-------------------------------------------------------------

I hear it as a G#, like this:

e-------------------------------------------------------------
B-12--------11----9----11----12----14----16-------------------
G---------------------------------------------15----13----11--
D-------------------------------------------------------------
A-------------------------------------------------------------
E-------------------------------------------------------------
----------

Auriplane!!

Re: Sounds good, except this one

iamHoustonian

You don’t need to see my identification…

Location: Jacksonville, Fl

Joined: Oct 03 2011

Yeah that part is hard to hear haha. Thanks for the help.