You're looking at an archived, read-only version of our old community forum. See our new community forum here.

Evangelion - OP-2 (C - type) [Death and Rebirth intermission]

ego_17

Joined: Aug 26 2011

tab

Hi, I made some changes to

hslesperance

Location: Walpole, MA

Joined: Aug 10 2008

Hi, I made some changes to your tab. You can change the spacing if you want, but these notes should be correct.
I'll wait until you update the gp5 file to upload

1|-----------------------------------3-4-3-1---1-3-4-3----------------------------|
2|--3/4-------------4/6--6-------------------4---------1--1-3-4-----4--3--3-------|
3|------3--3---3------------3--3---3----------------------------------------------|
4|--------------------------------------------------------------------------------|
5|--------------------------------------------------------------------------------|
6|--------------------------------------------------------------------------------|

1|----1--4--3--1------3--3--1--0--1-----------------------------------------------|
2|--4-------------4------------------1--1---3--3----------------------------------|
3|--------------------------------------------------------------------------------|
4|--------------------------------------------------------------------------------|
5|--------------------------------------------------------------------------------|
6|--------------------------------------------------------------------------------|

1|-----------------------------------3-4-3---------1-3-4-3------------------------|
2|--3/4-------------4/6--6-----------------4/6--4----------1--1-3-4-----4--3--3---|
3|------3--3---3------------3--3---3----------------------------------------------|
4|--------------------------------------------------------------------------------|
5|--------------------------------------------------------------------------------|
6|--------------------------------------------------------------------------------|

1|----1--4--3--1------3--3--1--0--1---3--3/4-3------------------------------------|
2|--4-------------4---------------------------------------------------------------|
3|--------------------------------------------------------------------------------|
4|--------------------------------------------------------------------------------|
5|--------------------------------------------------------------------------------|
6|--------------------------------------------------------------------------------|

1|--------------------------------------------------------------------------------|
2|--3/4---4---3---4---4---3-----4/6---6----4--3------3--4--4--3--4/6---3----------|
3|------------------------------------------------5-----------------------5----3--|
4|--------------------------------------------------------------------------------|
5|--------------------------------------------------------------------------------|
6|--------------------------------------------------------------------------------|

1|--------------------------------------------------1---3--4--3--1------1----1/3--|
2|---3/4---4---3---4---4---3----4/6---6\4--4--3---4------------------4------------|
3|--------------------------------------------------------------------------------|
4|--------------------------------------------------------------------------------|
5|--------------------------------------------------------------------------------|
6|--------------------------------------------------------------------------------|

1|-------------------------6--4--3-1--3----3--6--6/8------------------------------|
2|--1---4--4/6--4--6--6--6----------------------------------------------4\6-4--4--|
3|--------------------------------------------------10\8-8--7--7--5--7------------|
4|--------------------------------------------------------------------------------|
5|--------------------------------------------------------------------------------|
6|--------------------------------------------------------------------------------|


1|---------------------------6--4--3-1--3----3--6/8-8---------6--6--3--6-6/8--8---|
2|--------4----6--4--6--6--6------------------------------------------------------|
3|--3/5-----------------------------------------------10\8--8---------------------|
4|--------------------------------------------------------------------------------|
5|--------------------------------------------------------------------------------|
6|--------------------------------------------------------------------------------|

1|-----------------------6--4--3-1--3----3--6/8--8---------6--6--3---6--6-----6/8-|
2|------4--6--4--6--6--6----------------------------------------------------------|
3|--5----------------------------------------------10\8--8------------------------|
4|--------------------------------------------------------------------------------|
5|--------------------------------------------------------------------------------|
6|--------------------------------------------------------------------------------|
----------

My Original Songs - https://soundcloud.com/hslesperance

Also, you can export a

hslesperance

Location: Walpole, MA

Joined: Aug 10 2008

Also, you can export a text(ASCII) file with guitarpro instead of writing it out

----------

My Original Songs - https://soundcloud.com/hslesperance

wowwhis is actyally I was

ego_17

Joined: Aug 26 2011

wow
whis is actyally I was hoping
i know what am missed some slides in end part, but get no idea what notes need to add ( 3)----10\8--8-- - what was what im looking for :))
and thank you for other fixes

and by the way i think last 4 in this part don't need

1|-------------------------6--4--3-1--3----3--6--6/8------------------------------|
2|--1---4--4/6--4--6--6--6-------------------------------------------4\6-4--4-----|
3|--------------------------------------------------10\8-8--7--7--5--7------------|
4|--------------------------------------------------------------------------------|
5|--------------------------------------------------------------------------------|
6|--------------------------------------------------------------------------------|

also i add some notes to make it sound more good without piano
like this one (2)
1|----1--4--3--1------3--3--1--0--1-----------------------------------------------|
2|--4-------------4------------------1--1---3--3----------------------------------|
3|--------------------------------------2-----------------------------------------|
4|--------------------------------------------------------------------------------|
5|--------------------------------------------------------------------------------|
6|--------------------------------------------------------------------------------|

but ok lets remove them

gt5 file is horrible, think to remove it to

and I am so sorry for my poor runglish

I forgot to post this the

hslesperance

Location: Walpole, MA

Joined: Aug 10 2008

I forgot to post this the other day http://www.gametabs.net/neon-genesis-evangelion/op-2-type-c

I have to disagree with the B4's at the end, it sounds like there are two to me

----------

My Original Songs - https://soundcloud.com/hslesperance

thankyou and yes youre

ego_17

Joined: Aug 26 2011

thankyou

and yes youre right
just realized what i played that part like 6\4
after changing to 4\6 its become clear

Games

JanellHallett

Joined: Dec 01 2021

Quite amazing games suggestions on your blog these are amazing help. I’m sure various people able to get the entertainment stuff for them. Would like to suggest https://www.assignmentmasters.co.uk/student-proofreading-services-uk/ website others to avail the trusted material. Keep it up with your work here that would be trusted.