You're looking at an archived, read-only version of our old community forum. See our new community forum here.

Ys 3 - Town of Redmont

BacardiBreezer

My life is a chip in your pile. Ante up!

Location: NE Ohio

Joined: Aug 16 2010

Ah this was going so well until the damn high notes at the end XD please someone let me know if they're right or if there's an easier way to play it!

Town of Redmont

http://www.youtube.com/watch?v=heJRChpKHTQ

Also, Inside a

BacardiBreezer

My life is a chip in your pile. Ante up!

Location: NE Ohio

Joined: Aug 16 2010

Also,

Inside a House

http://www.youtube.com/watch?v=WdFjMnojOsA

On redmont, the fifth note of

hslesperance

Location: Walpole, MA

Joined: Aug 10 2008

On redmont, the fifth note of the third line should be B10

For the second half try moving the notes down an octave and see if the fingering is easier

----------

My Original Songs - https://soundcloud.com/hslesperance

Inside the Houseys I assume

hslesperance

Location: Walpole, MA

Joined: Aug 10 2008

Inside the Houseys

I assume you used the same midi I posted under the audio file link to make this tab. You can't always trust those midi's to be 100% accurate. Double check with the original song. The last note was 12 not 16

----------

My Original Songs - https://soundcloud.com/hslesperance

Actually I wasn't sure about

BacardiBreezer

My life is a chip in your pile. Ante up!

Location: NE Ohio

Joined: Aug 16 2010

Actually I wasn't sure about that but figured you'd say something. You think I should take Redmont down an octave? I wanted it to sound like the song, but I guess if it's easier to play I should...

Re: Ys 3 - Town of Redmont

BacardiBreezer

My life is a chip in your pile. Ante up!

Location: NE Ohio

Joined: Aug 16 2010

Redmont

Revised

Personally, I'd put the last

auriplane

Joined: Sep 06 2008

Personally, I'd put the last note of the third bar on the first string.

Also, in this part:

e|------------------------------------------------------------------------|
B|------------------10------------12-10~----8--6~-------------------------|
G|------9-7-9----10----12------12---------------------4-7-5-4---4---------|
D|----7-------------------9-12--------------------------------5---7-------|
A|--8---------------------------------------------------------------7~----|
E|------------------------------------------------------------------------|

The bold note should be a 5. Other than that one note, everything seems correct to me.

I'm going to write out some of it in a different position, just to see what you think of it:

e|--------------------------------------------------------------------|
B|------------------------------8-------------------------------------|
G|---------9----7------------7-------9-10-9-8-9---7---------------9---|
D|--7-9-10--------10-7-9--10--------------------9---10-7~----9-10-----|
A|--------------------------------------------------------------------|
E|--------------------------------------------------------------------|

e|--------------------------------7-----------------------------------------|
B|------------------10-8-------8-----10~----8-------------------------------|
G|------9-7-9----10---------7------------------9~-------7-------------------|
D|----7-------------------9---------------------------9---10-9----9-7-------|
A|--8----------------------------------------------------------10-----7~----|
E|--------------------------------------------------------------------------|

e|-----------------------------------7-------7------7---8---7-----------|
B|------------------------------8-10-----------10-9-------------10------|
G|----------9-----7------7-9-10--------9-8-9------------------------9---|
D|--------7---------9-10------------------------------------------------|
A|--8-7-8---------------------------------------------------------------|
E|----------------------------------------------------------------------|

e|-----------------------------10-12-13----------------10------------------------|
B|--------10-12-13----10-12-13----------10----12-13-12----13---12---10-----------|
G|--10-12----------------------------------------------------------------9---13--|
D|-------------------------------------------------------------------------------|
A|-------------------------------------------------------------------------------|
E|-------------------------------------------------------------------------------|

That's where I'd play it. I'm not saying you should make your tab like that, or you have to play it that way, just that I'd move around the neck a bit less :-)

----------

Auriplane!!

Sure, easier is better!

BacardiBreezer

My life is a chip in your pile. Ante up!

Location: NE Ohio

Joined: Aug 16 2010

Sure, easier is better!

Hehe, okay. I posted

auriplane

Joined: Sep 06 2008

Hehe, okay. I posted it.

http://www.gametabs.net/ys-iii-wanderers-from-ys/town-redmont-0

----------

Auriplane!!

Thanks auri!

BacardiBreezer

My life is a chip in your pile. Ante up!

Location: NE Ohio

Joined: Aug 16 2010

Thanks auri!