You're looking at an archived, read-only version of our old community forum. See our new community forum here.

FF Mystic Quest - Battle 3 & Doom Castle rhythm guitar

BacardiBreezer

My life is a chip in your pile. Ante up!

Location: NE Ohio

Joined: Aug 16 2010

Battle 3

http://www.youtube.com/watch?v=aZfGl07Gexk

Also, I did the rhythm guitar for Doom Castle, cpxazn did the lead already

Doom Castle

http://www.youtube.com/watch?v=L59y977ZpaQ

Doom Castle: Cpx did, but he

auriplane

Joined: Sep 06 2008

Doom Castle:

Cpx did, but he did the other parts too. They're in his GP5 file. Unfortunately, his GP5 is kind of annoying (it's missing notes that go below the specified tuning, like most tabs imported from MIDIs, and it's inaccurate, like most tabs imported from MIDIs). But for the rhythm guitar, it's accurate, except for one note (second note of measure 45).

Haven't looked at the other one yet

----------

Auriplane!!

I'm too lazy to play through

auriplane

Joined: Sep 06 2008

I'm too lazy to play through the other one right now. HSL!!

----------

Auriplane!!

These are the 5th and 7th

hslesperance

Location: Walpole, MA

Joined: Aug 10 2008

These are the 5th and 7th lines from battle 3. I only changed the last one or two notes of each. You must have been hearing a different instrument.

e|--18~----------15-17-----------15-----17--18--------17--|
B|---------16-18-------16----18---------------------------|
G|--------------------------------------------------------|
D|--------------------------------------------------------|
A|--------------------------------------------------------|
E|--------------------------------------------------------|

e|--------12-----------------------------------------|--------15~---------------17-18-20---17-18-20---17~~-|
B|--13----------16----15----16----15----13-----------|-----15-------16----13~------------------------------|
G|-----------------------------------------12-15-14--|--12-------------------------------------------------|
D|-----15----15----15----15----17----17--------------|-----------------14----------------------------------|
A|---------------------------------------------------|-----------------------------------------------------|
E|---------------------------------------------------|-----------------------------------------------------|

For guitar 2, I think some of these single notes should be two note chords and you left out some low notes that are hard to hear.

e|-------------------------------------------------------------|
B|-------------------------------------------------------------|
G|-------------------------------------------------------------|
D|----------------------------------3--3--3-3-3----5---5---5---|
A|--5--5--5-5-5------5--5--5-5-5----1--1--1-1-1----3---3---3---|
E|--3--3--3-3-3------3--3--3-3-3-------------------------------|

e|-------------------------------------------------------------|
B|-------------------------------------------------------------|
G|-------------------------------------------------------------|
D|-------------------5--5--5-5-5----3--3--3-3-3----5---5---5---|
A|--5--5--5-5-5------3--3--3-3-3----1--1--1-1-1----3---3---3---|
E|--3--3--3-3-3------------------------------------------------|

e|---------------------------------------------|
B|---------------------------------------------|
G|---------------------------------------------|
D|--1----------1--0----------------3--1--0-----|
A|-------1-----------3--1-------------------3--|
E|----------3--------------1-------------------|

e|--------------------------------------------|
B|--------------------------------------------|
G|--------------------------------------------|
D|--1----------1--0---------------3--1--0-----|
A|-------1-----------3--1------------------3--|
E|----------3-------------1-------------------|

e|---------------------------------|
B|---------------------------------|
G|---------------------------------|
D|---------------------------------|
A|--5----5------------5----5-------|
E|--3----3------------3----3-------|

e|---------------------------------|---------------------------------------------------------------------------------|
B|---------------------------------|---------------------------------------------------------------------------------|
G|--------------------3----3-------|--0------------------------------------------------------------------------------|
D|--------------------1----1-------|------3---1----------0----------1-----------------------0~-----0-0-0-0-0-0-0-0---|
A|--3----3-------------------------|-----------------3-----------------------3------1--3-----------------------------|
E|--1----1-------------------------|--3---1-----------------------------3--------------------------------------------|

e|-------------------------------------------|
B|-------------------------------------------|
G|-------------------------------------------|
D|---------------------0--1------------------|
A|------------------3------------------------|
E|--3--3--3--3--1-------------------1----3---| x8

Auri, are you saying the 45th measure is wrong on cpx's tab. can bacardi's be uploaded?

----------

My Original Songs - https://soundcloud.com/hslesperance

Well, hers is less accurate,

auriplane

Joined: Sep 06 2008

Well, hers is less accurate, but I didn't really want to go through note-by-note since Cpx's is 99% accurate for the rhythm guitar. So I didn't check the whole thing or anything.

Anyway, Cpx doesn't have a text file of the rhythm guitar online.

----------

Auriplane!!

Ok, hsl I trust your

BacardiBreezer

My life is a chip in your pile. Ante up!

Location: NE Ohio

Joined: Aug 16 2010

Ok, hsl I trust your changes...if my tab isn't accurate then don't put it up I guess. Didn't know he did the rhythm.

Well here's battle

hslesperance

Location: Walpole, MA

Joined: Aug 10 2008

Well here's battle 3

http://www.gametabs.net/final-fantasy-mystic-quest/battle-3

----------

My Original Songs - https://soundcloud.com/hslesperance