You're looking at an archived, read-only version of our old community forum. See our new community forum here.

3 Tabs - One Piece, Goldeneye, and Paper Mario

Ranulf

I will not join your gametabs.

Joined: Oct 15 2009

One Piece:
Overtaken Tab Overtaken MP3
Goldeneye:
Byelomorye Dam Tab Byelomorye Dam MP3
Paper Mario:
Goomba Road Tab Goomba Road MP3

I did the best I could, but I still need a little help.

Here are corrections for the

hslesperance

Location: Walpole, MA

Joined: Aug 10 2008

Here are corrections for the Dam

Byelomorye Dam
Goldeneye 007
Nintendo 64
Tabbed by John Adams
Composed by Grant Kirkhope, Robin Beanland, and Graeme Norgate
6/18/2011


e||----------------------------------------------10-----------9-----------8--7-|
B||----------------------------------------7-8--------5-7-8-5-----5-7-8-5------|
G||--------------------------------------9-----9-------------------------------|
D||----------------------------------------------------------------------------|
A||--5---8----7------7---3---1----7--------------------------------------------|
E||--5---8----7------7---3---1----7--------------------------------------------|

----------10-----------9-----------8--7--------------10-----------9-----------8--7-|
----7-8--------5-7-8-5-----5-7-8-5-------------7-8--------5-7-8-5-----5-7-8-5------|
--9-----9------------------------------------9-----9-------------------------------|
-----------------------------------------------------------------------------------|
-----------------------------------------------------------------------------------|
-----------------------------------------------------------------------------------|

----------10-----------9-----------8--7------15~-14~-12~---15~-14~-12~-----15~-14~-12~---15~-14~-19~-|
----7-8--------5-7-8-5-----5-7-8-5-------------------------------------------------------------------|
--9-----9--------------------------------------------------------------------------------------------|
-----------------------------------------------------------------------------------------------------|
-----------------------------------------------------------------------------------------------------|
-----------------------------------------------------------------------------------------------------|

------24--------------22------------------------------------------------------------------------------------|
--------------24--------------22------24--------------22-----------17--19-19-19--17-17--17--20-20-20--19-19-|
--21------------------------------------------24--------------23--------------------------------------------|
----------21------24--------------21------------------------------------------------------------------------|
--------------------------24--------------22------24------21------------------------------------------------|
------------------------------------------------------------------------------------------------------------|

-----12-------------10-----------------------------------------------------------------------------|
------------12--------------10-----12--------------10----------------------------------------------|
--9----------------------------------------12-------------11--9--11-11-11--9-9--9--12-12-12--11-11-|
---------9------12--------------9------------------------------------------------------------------|
------------------------12-------------10------12------9-------------------------------------------|
---------------------------------------------------------------------------------------------------|

--15~-14~-12~---15~-14~-12~-----15~-14~-12~---15~-14~-19~-----------------------------||
--------------------------------------------------------------------------------------||
--------------------------------------------------------------------------------------||
-----------------------------------------------------------13--14--16--16--14--16--17-||
--------------------------------------------------------------------------------------||
--------------------------------------------------------------------------------------||

---------------------------------12----------------------------------------15-14----||
------------------------------------15-13-12-15-13-12----13-12-------12----------12-||
------------------------------------------------------14-------14-12----14----------||
---14--16--17--17--16--17--16-------------------------------------------------------||
------------------------------------------------------------------------------------||
------------------------------------------------------------------------------------||

I think it would be easier to play the first part like this since you can do pull offs:

------------10-------------9--------------------|
-----------------------------------------13--12-|
--9-11-12-9------9-11-12-9-----9-11-12-9--------|
------------------------------------------------|
------------------------------------------------|
------------------------------------------------|

Staves 4 and 5 are the same, but one is an octave down for people who dont have 24 frets. So you can make a note that there are two options or choose one

----------

My Original Songs - https://soundcloud.com/hslesperance

Goomba Road Made some changes

hslesperance

Location: Walpole, MA

Joined: Aug 10 2008

Goomba Road

Made some changes

----------

My Original Songs - https://soundcloud.com/hslesperance

And

hslesperance

Location: Walpole, MA

Joined: Aug 10 2008

And overtaken

http://www.gametabs.net/one-piece/overtaken

----------

My Original Songs - https://soundcloud.com/hslesperance

Thank you so much for the

Ranulf

I will not join your gametabs.

Joined: Oct 15 2009

Thank you so much for the help, especially with Overtaken! :D
How's this for Dam?

Bungee jumping off the dam,

hslesperance

Location: Walpole, MA

Joined: Aug 10 2008

Bungee jumping off the dam, good times

http://www.gametabs.net/goldeneye-007/byelomorye-dam

----------

My Original Songs - https://soundcloud.com/hslesperance

I know, man, I love

Ranulf

I will not join your gametabs.

Joined: Oct 15 2009

I know, man, I love Goldeneye, and I really wish I still had it. Anyways, thanks again!