You're looking at an archived, read-only version of our old community forum. See our new community forum here.

the mask of zorro theme

guitargirlmarielle

Location: the netherlands

Joined: May 21 2011

hello everyone,

I really want to play the theme from the mask of zorro.
I found a vid on youtube (see link) and I REALLY want to know which tabs he is playing.
could someone help me please???

here is the link:
http://www.youtube.com/watch?v=XZFpIXesUYU

greetings
Marielle

Re: the mask of zorro theme

guitargirlmarielle

Location: the netherlands

Joined: May 21 2011

could some one help me out with this song?
I really want it and I still don't know which tabs and chords he is using :(

greetings
Marielle

----------

games live on in songs ;)

Here you go

hslesperance

Location: Walpole, MA

Joined: Aug 10 2008

Here you go :)

e----------------------------0--1-------0--1-----
B------0--2-------0--2----3----------3-----------
G---2----------2---------------------------------
D------------------------------------------------
A------------------------------------------------
E------------------------------------------------

e---3--5--6------6--5--3--5----------------------
B------------------------------5-----------------
G------------------------------------------------
D------------------------------------------------
A------------------------------------------------
E------------------------------------------------

e-----------------0-0-----------0--1-------0-1---
B------0--2-------------2----3----------3--------
G---2----------2---------------------------------
D------------------------------------------------
A------------------------------------------------
E------------------------------------------------

e---3--5/6--6------6--5h6p5--3--5----------------
B------------------------------------5-----------
G------------------------------------------------
D------------------------------------------------
A------------------------------------------------
E------------------------------------------------

e---------0--3----1----0-------------0-----------
B------2--------------------3----2-3-------------
G---2--------------------------------------------
D------------------------------------------------
A------------------------------------------------
E------------------------------------------------

e---------0--3----1----0-------------------------
B------2--------------------3----2-0-------------
G---2--------------------------------2-----------
D------------------------------------------------
A------------------------------------------------
E------------------------------------------------



e---0----1----0----------------------------------
B---1----3----3----------------------------------
G---2----2----3----------------------------------
D---2----0----2----------------------------------
A---0----0----0----------------------------------
E------------------------------------------------

e---0----1----0----------------------------------
B---1----3----3----------------------------------
G---2----2----3----------------------------------
D---2----0----2----------------------------------
A---0----0----0----------------------------------
E------------------------------------------------

e---0----1----0----1-----------------------------
B---1----3----1----3-----------------------------
G---2----2----2----2-----------------------------
D---2----0----2----0-----------------------------
A---0----0----0----0-----------------------------
E------------------------------------------------

e------------------------------------------------
B---2--------------------------------------------
G---2--------------------------------------------
D---2--------------------------------------------
A---0--------------------------------------------
E------------------------------------------------

I didn't put the rhythm for the chords, just the basic layout

----------

My Original Songs - https://soundcloud.com/hslesperance

Re: Here you go

guitargirlmarielle

Location: the netherlands

Joined: May 21 2011

:D
realy realy thank you for giving me the tabs :D
I so love this song :D

thank you very much :D

greetings
Marielle

----------

games live on in songs ;)

alarm windows

ankur0099

Joined: Jan 16 2022

Hello everyone this is right time set alarm clock windows 10 just follow the some tips for this game.