You're looking at an archived, read-only version of our old community forum. See our new community forum here.

Chrono Trigger - To Far Away Times

BacardiBreezer

My life is a chip in your pile. Ante up!

Location: NE Ohio

Joined: Aug 16 2010

I initially wanted to tab multiple guitars but then I realized what a bitch this song is and went with a tab for a single guitar. LOL. Also, inb4 a record amount of errors HSL finds :P

To Far Away Times

http://www.youtube.com/watch?v=m1qbVI9iTBU

Ah shit I forgot to delete

BacardiBreezer

My life is a chip in your pile. Ante up!

Location: NE Ohio

Joined: Aug 16 2010

Ah shit I forgot to delete those blank ones at the bottom XD

Switch to "Memories of

auriplane

Joined: Sep 06 2008

Switch to "Memories of Green"

Hey, that's the main theme! :-)

----------

Auriplane!!

Re: Switch to "Memories of

BacardiBreezer

My life is a chip in your pile. Ante up!

Location: NE Ohio

Joined: Aug 16 2010

auriplane said

Switch to "Memories of Green"

Hey, that's the main theme! :-)

You sure? It looks exactly like Memories of Green, but it's a step down.

Also if you wanted to play

BacardiBreezer

My life is a chip in your pile. Ante up!

Location: NE Ohio

Joined: Aug 16 2010

Also if you wanted to play the rhythm at the beginning, it goes:

e|-------------------8----------7--------------|
B|------8-10-------8----------8---------8------|
G|----9----------9----------9---------9--------|
D|--7----------7----------7---------7----------|
A|---------------------------------------------|
E|---------------------------------------------|

OR

e|--------15-17---------15-20----------15-19----------15-----|
B|-----17------------17-------------17-------------17--------|
G|--14------------14-------------14-------------14-----------|
D|-----------------------------------------------------------|
A|-----------------------------------------------------------|
E|-----------------------------------------------------------|

(No subject)

Vic9mm

The Fingerstyle Mechanic

Location: Dallas Texas

Joined: Aug 27 2008

Only person I found on youtube that has played this on guitars.

----------

Watch me: http://www.youtube.com/user/Vic9mm

Yes, I'm sure.

auriplane

Joined: Sep 06 2008

Yes, I'm sure. It's not exactly like Memories of Green, but a step down. It's exactly like the main theme, but a step down :-)

----------

Auriplane!!

Oh, Memories of Green is the

auriplane

Joined: Sep 06 2008

Oh, Memories of Green is the main theme. So the first thing I said was correct, but the second wasn't :-) (It's like both, since Memories of Green uses the main theme.)

I'm still sure, though.

----------

Auriplane!!

Vic I have seen that one,

BacardiBreezer

My life is a chip in your pile. Ante up!

Location: NE Ohio

Joined: Aug 16 2010

Vic I have seen that one, it's pretty good.

Yeah Auri they are VERY similar.

Good job, only two mistakes,

hslesperance

Location: Walpole, MA

Joined: Aug 10 2008

Good job, only two mistakes, they were both in the second measure of the keys before memories of green:

e|-------------------------------------------------------|
B|---------9----------------------9----------------------|
G|--11--11---10-8-6-8--8--------8---8--------------------|
D|---------------------------11------------11-10---------|
A|-----------------------------------------------11------|
E|-------------------------------------------------------|

Also the rhythm you added above was tuned a half step down and missing the e21

http://www.gametabs.net/chrono-trigger/to-far-away-times

----------

My Original Songs - https://soundcloud.com/hslesperance

Thanks HSL, I knew that 8 on

BacardiBreezer

My life is a chip in your pile. Ante up!

Location: NE Ohio

Joined: Aug 16 2010

Thanks HSL, I knew that 8 on the b string didn't sound quite right.

Auri are you familiar with Calebelijah's Memories of Green tab? It's almost exactly the same

http://www.gametabs.net/super-nintendo/chrono-trigger/memories-of-green

Ah, I don't usually look at

auriplane

Joined: Sep 06 2008

Ah, I don't usually look at tabs. (With exceptions, of course.) But yeah, you're right. I wasn't listening to any MP3s, and I just played through your tab and recognized it as the main theme :-) Which it is, but it's also that other song, which I didn't realize.

----------

Auriplane!!

Re: (No subject)

BluePhoenix

give me a dollar

Location: Earth, Universe A

Joined: Jan 21 2008

Vic9mm said

Only person I found on youtube that has played this on guitars.

there's also this: http://www.youtube.com/watch?v=BykWlIjeWlk&feature=related

at 3:12