You're looking at an archived, read-only version of our old community forum. See our new community forum here.

I Need Help this .mp3, i want her tab pleaseee! "REWARD"

ivannhilyan

Joined: Apr 08 2011

hey guys need your help

this mp3 is a part of one song, i need the tab of this fragment help!!1

when I help with this part will put the full tab :D this super cool

http://www.mediafire.com/?468oh9lp6ic6dfb

AH e-------------------------

hslesperance

Location: Walpole, MA

Joined: Aug 10 2008

                               AH
e------------------------------3------------------------------------
B--------------------4--4-----------4b5--6--4-6b8--6-4--------------
G-------3-5b6--5-5-5------5--5----5---------------------------------
D---3-5-------------------------------------------------------------
A-------------------------------------------------------------------
E-------------------------------------------------------------------

e-------------------------------------------------------------------
B-------------6b8-6-4-----------------4-6-6b7--6b7--7b8r------------
G---5--3-5-5------------3h5--3h5-5--5--------------------5-8-5------
D-------------------------------------------------------------------
A-------------------------------------------------------------------
E-------------------------------------------------------------------

e-------------------------------------------------------------------
B----------------------------------------------------6-7b8--7b8r----
G-----5-8-----8--5---5-8--5---5-8--5---5-8--5---5-8-----------------
D---8-----5-5------8--------8--------8--------8---------------------
A-------------------------------------------------------------------
E-------------------------------------------------------------------

e-------------------------------------------------------------------
B---7-6---------------------------------------7b8--7b8--------------
G-------8-5----5-8-5---5-8-5----5-8-5----5-8------------7-8b10r-----
D------------8-------8--------8--------8----------------------------
A-------------------------------------------------------------------
E-------------------------------------------------------------------
                                                        pb
e---10b11r--10--10p8-8-8-8--8b9---8-8-10b11--10b11--10--11r10--8----
B-------------------------------------------------------------------
G-------------------------------------------------------------------
D-------------------------------------------------------------------
A-------------------------------------------------------------------
E-------------------------------------------------------------------
           1/4       1/4
e----------8--------8h10---10b11--10b11--10--10-10-10-8-----8b9-----
B---10-10------10---------------------------------------10----------
G-------------------------------------------------------------------
D-------------------------------------------------------------------
A-------------------------------------------------------------------
E-------------------------------------------------------------------
                                                   tr
e------10b11=11=11==11==11=11==11==11=11==11=11--14p11--------------
B---10--------------------------------------------------------------
G-------------------------------------------------------------------
D-------------------------------------------------------------------
A-------------------------------------------------------------------
E-------------------------------------------------------------------

h - hammer on
p - pull off
b - bend
pr - pre bend
r - release
AH - artificial harmonic
1/4 - quarter bend
= - hold bend
tr - trill

Where is my reward!

----------

My Original Songs - https://soundcloud.com/hslesperance

What's the reward?

Joined: Dec 31 1969

What's the reward?

Jesus cookies of course!

Ranulf

I will not join your gametabs.

Joined: Oct 15 2009

Jesus cookies
Jesus cookies of course!

They better be home made :)

Joined: Dec 31 1969

They better be home made... by Jesus! :)

Re: They better be home made :)

hslesperance

Location: Walpole, MA

Joined: Aug 10 2008

Those were homemade by me

And I had to eat them all by myself becuase nobody made a ragnarok tab :(

----------

My Original Songs - https://soundcloud.com/hslesperance

Yeah, I'm really sorry about

Ranulf

I will not join your gametabs.

Joined: Oct 15 2009

Yeah, I'm really sorry about that...

P.S. Did you really make those?