You're looking at an archived, read-only version of our old community forum. See our new community forum here.

Raindrops keep fallin' on my head

lognar

Joined: Apr 03 2010

this isn't creative at all i just tabbed out this video to the best of my ability http://www.youtube.com/watch?v=E_iLa0U4m5w
because i wanted to play it. probably not a 100% accurate transcription but i did my best, the only thing is the timing is not right. i used tuxguitar and i did not pay attention to the timing i just put in the numbers so you should watch the video then play it or if u know the song just try to feel it - the notes are all there, so enjoy! :P

Title: raindrops keep fallin' on my head
Artist: burt bacharach
Author: AndanteLargo on youtube

E|-0--------0---1---0-----------|-0-------------------------|-3----3---3---5---3-----------|
B|------3---------------3---1---|------0------------0-------|------5---------------6---5---|
G|------0---------------0-------|------0------------0-------|----------------------3-------|
D|------------------------------|---------------------------|------------------------------|
A|-3------------3---------------|-3--------3---3------------|-3------------3---------------|
E|------------------------------|---------------------------|-----------------------------|
   
                                    v                         
E|-0----1--------------|-7---------5----3-----0---|-----7--------5---------|-3----3---0---1---3---1---0---|
B|-----------3----1----|------0----2--------------|-0--------0-------------|------------------------------|
G|---------------------|------0----2--------------|----------0-------------|------------------------------|
D|---------------------|-----------0--------------|------------------------|-0------------0---------------|
A|---------------------|-----------0--------------|--------------0---------|------------------------------|
E|-1---------1---------|-0------------------------|-----0------------------|------------------------------|
 
                v
E|-3----3---0---1----3-------|---------------------------------|-0--------0---1---0-----------|
B|-1------------3------------|-------------0---1---3-----------|------3---------------3---1---|
G|--------------0------------|---------0-----------------------|------0---------------0-------|
D|-0------------0------------|---------------------------------|------------------------------|
A|---------------------------|---------------------2-----------|-3------------3---------------|
E|---------------------------|-0---3-----------3---------------|------------------------------|
 
E|-0-------------------------|-3----3---3---5---3-----------|-0----1--------------|
B|------0------------0-------|------5---------------6---5---|-----------3----1----|
G|------0------------0-------|----------------------3-------|---------------------|
D|---------------------------|------------------------------|---------------------|
A|-3--------3---3------------|-3------------3---------------|---------------------|
E|---------------------------|------------------------------|-1---------1---------|
   
                      v
E|-7---------5----3-----0---|-----7--------5---------|-3----3---0---1---3---1---0---|
B|------0----2--------------|-0--------0-------------|------------------------------|
G|------0----2--------------|----------0-------------|------------------------------|
D|-----------0--------------|------------------------|-0------------0---------------|
A|-----------0--------------|--------------0---------|------------------------------|
E|-0------------------------|-----0------------------|------------------------------|
                 v
E|-3----3---0---1----3-------|---------------------------------|-0-------------3-----------|
B|-1------------3------------|-------------0---1---3-----------|-1-----------------3-------|
G|--------------0------------|---------0-----------------------|-0----0--------------------|
D|-0------------0------------|---------------------------------|---------------------------|
A|---------------------------|---------------------------------|-3--------3------------2---|
E|---------------------------|-0---3-----------3---------------|--------------------------|
                v           v
E|---------0---1-------0-----------|-0-----------0---1---5-------3---|-------------0---5---3-------3---|
B|-------------1-----------3---1---|-----3-----------0---------------|-----0---------------------------|
G|-0-----------2-----------2-------|---------0-------0---------------|-----0---------------------------|
D|-------------0-----------3-------|---------------------------------|---------------------------------|
A|-----2-----------0---------------|---------------------------------|---------------------------------|
E|---------------------------------|-3-----------3-----------0-------|---------0-------0-------0-------|
                                                       slight pause..
E|-----0---7---5-------0-----------|-0-------------------------------|-0--------0---1---0-----------|
B|-0---------------8-------3---1---|---------3------------1---0------|------3---------------3---1---|
G|-0---------------------------0---|----------------------0----------|------0---------------0-------|
D|-------------------------0-------|-----0-----------0---------------|------------------------------|
A|---------0-----------------------|---------------------------------|-3------------3---------------|
E|---------------------------------|-------------3-------------------|------------------------------|
 
E|-0-------------------------|-3----3---3---5---3-----------|-0----1--------------|
B|------0------------0-------|------5---------------6---5---|-----------3----1----|
G|------0------------0-------|----------------------3-------|---------------------|
D|---------------------------|------------------------------|---------------------|
A|-3--------3---3------------|-3------------3---------------|---------------------|
E|---------------------------|------------------------------|-1---------1---------|
  
              v
E|-7---------5----3-----0---|-----7--------5---------|-3----3---0---1---3---1---0---|
B|------0----2--------------|-0--------0-------------|------------------------------|
G|------0----2--------------|----------0-------------|------------------------------|
D|-----------0--------------|------------------------|-0------------0---------------|
A|-----------0--------------|--------------0---------|------------------------------|
E|-0------------------------|-----0------------------|------------------------------|
 
E|-3----3---0---1----3-------|-------------------------0-------|-------------------------5---3---|
B|-1------------3------------|-------------0---1---3---1-------|-----------------1---1---3-------|
G|--------------0------------|---------0---------------0-------|-----------------2---2---4-------|
D|-0------------0------------|---------------------------------|-------------------------3-------|
A|---------------------------|-------------------------3-------|-2---0-------------------3-------|
E|---------------------------|-0---3-----------3---------------|---------3---1-----------3-------|
  
            v
E|---------0-----------------------|
B|---------0-----------------------|
G|-5-------0-----------------------|
D|---------------------------------|
A|---------3-----------------------|
E|---------------------------------|

beautyfull =)

Max_depa

Location: Italy

Joined: Feb 11 2010

beautyfull =)