You're looking at an archived, read-only version of our old community forum. See our new community forum here.

Simple and Clean

Ranulf

I will not join your gametabs.

Joined: Oct 15 2009

Tab
Song

Can someone look this over please...and could this be considered an arrangement because I thought I added a few parts in there that weren't in the song, but I'm not really sure if it could be called an arrangement. Also, there's not really anything to tab after 4:08 in the song so I didn't.

I made some

hslesperance

Location: Walpole, MA

Joined: Aug 10 2008

I made some changes:

|--------------------------------------------------------------------------|
|--------------------------------------------------------------------------|
|----------------------------------14--10---15h17---17-17h19--17p15--17----|
|------12--10--15--12---12--15--12--------------------------------------17-|
|--10----------------------------------------------------------------------|
|--------------------------------------------------------------------------|

|---------------------------------------------------------------------------|
|--16-15--------------18-16-15----15-16-15---------------13h15--16----------|
|---------15-14-14-15----------17---------------15-----------------17-15-14-|
|--------------------------------------------17-------15--------------------|
|---------------------------------------------------------------------------|
|---------------------------------------------------------------------------|

Pause

|---------------------------------------|
|---------------------------------------|
|-----14--15-15------14--15-15----12-15-|
|--15-------------15--------------------|
|---------------------------------------|
|---------------------------------------|

|-----------------------------------------------------------------|
|-----------------15----------------------------------------------|
|-----14--15---17----17-15----------------------14--15-15---17----|
|--15-----------------------15p13p12h13p12---15----------------17-|
|-----------------------------------------------------------------|
|-----------------------------------------------------------------|

|------------------------------------------------------------|
|------------------------------------------------------------|
|------------------------------------------------------------|
|--10--10--10--10-10--12-13--10-------------------12--13-----|
|----------------------------------14--14--14--15---------15-|
|------------------------------------------------------------|

|----------------------------------------------------------------------|
|----------------------------------------------------------------------|
|----------------------------------------------------------------------|
|----------13---------------12-13-15-17--15------17--------18-17-------|
|--13--15-------15-15-15-15-----------------15-------15-14-------14-15-|
|----------------------------------------------------------------------|

|-------------------------------------|
|-------------------------------------|
|-------------------------------------|
|----------13-----------13---------17-|
|--13--15-------13--15-------15-14----|
|-------------------------------------|

|--------------------------------------------------------------------------|
|--------------------------------------------------------------------------|
|----------------------------------14--10---15h17---17-17h19--17p15--17----|
|------12--10--15--12---12--15--12--------------------------------------17-|
|--10----------------------------------------------------------------------|
|--------------------------------------------------------------------------|

|---------------------------------------------------------------------------|
|--16-15--------------18-16-15----15-16-15---------------13h15--16----------|
|---------15-14-14-15----------17---------------15-----------------17-15-14-|
|--------------------------------------------17-------15--------------------|
|---------------------------------------------------------------------------|
|---------------------------------------------------------------------------|

Pause

|---------------------------------------|
|---------------------------------------|
|-----14--15-15------14--15-15----12-15-|
|--15-------------15--------------------|
|---------------------------------------|
|---------------------------------------|

|-----------------------------------------------------------------------|
|--------------------------------------------15-------------------------|
|-----------------------------------------------17-15-14--15-15---17----|
|--15h17p15p13-13--12-13p12------------------------------------------17-|
|---------------------------13-15h17p15p13------------------------------|
|-----------------------------------------------------------------------|

|---------------------------------------------------------|
|---------------------------------------------------------|
|---------------------------------------------------------|
|--10--10--10--10--12-13--10-------------------12--13-----|
|-------------------------------14--14--14--15---------15-|
|---------------------------------------------------------|

|----------------------------------------------------------------------------|
|----------------------------------------------------------------------------|
|----------------------------------------------------------------------------|
|----------13---------------12-13-15h17-15h17--15------17--------18-17-------|
|--13--15-------15-15-15-15-----------------------15-------15-14-------14-15-|
|----------------------------------------------------------------------------|

|-------------------------------------|
|-------------------------------------|
|-------------------------------------|
|----------13-----------13---------17-|
|--13--15-------13--15-------15-14----|
|-------------------------------------|

|--------------------------------------------------------------------------|
|--------------------------------------------------------------------------|
|----------------------------------14--10---15h17---17-17h19--17p15--17----|
|------12--10--15--12---12--15--12--------------------------------------17-|
|--10----------------------------------------------------------------------|
|--------------------------------------------------------------------------|

|---------------------------------------------------------------------------|
|--16-15--------------18-16-15----15-16-15---------------13h15--16----------|
|---------15-14-14-15----------17---------------15-----------------17-15-14-|
|--------------------------------------------17-------15--------------------|
|---------------------------------------------------------------------------|
|---------------------------------------------------------------------------|

|-------------------------------------------------------------------------|
|--18---------18-18--20--18-16-15-16-18-----------------15-15-16-18-15----|
|------15-15------------------------------15-15------15----------------17-|
|-------------------------------------------------17----------------------|
|-------------------------------------------------------------------------|
|-------------------------------------------------------------------------|

|-----------------------------------------------------------------------------------|
|----------------------------------------------------------------------15-----16-15-|
|--15--14-15------14-15----------------------------------------15----------17-------|
|--------------15---------15----------------15-15-15h17p15--17------15--------------|
|----------------------------18-17-18-17-18-----------------------------------------|
|-----------------------------------------------------------------------------------|

|--------------------------------------------------------------------------|
|--------------------------------------------------------------------------|
|----------------------------------14--10---15h17---17-17h19--17p15--17----|
|------12--10--15--12---12--15--12--------------------------------------17-|
|--10----------------------------------------------------------------------|
|--------------------------------------------------------------------------|

|---------------------------------------------------------------------------|
|--16-15--------------18-16-15----15-16-15---------------13h15--16----------|
|---------15-14-14-15----------17---------------15-----------------17-15-14-|
|--------------------------------------------17-------15--------------------|
|---------------------------------------------------------------------------|
|---------------------------------------------------------------------------|

|-------------------------------------------------------------------------|
|--18---------18-18--20--18-16-15-16-18-----------------15-15-16-18-15----|
|------15-15------------------------------15-15------15----------------17-|
|-------------------------------------------------17----------------------|
|-------------------------------------------------------------------------|
|-------------------------------------------------------------------------|

|-----------------------------------------------------------------------------------|
|----------------------------------------------------------------------15-----16-15-|
|--15--14-15------14-15----------------------------------------15----------17-------|
|--------------15---------15----------------15-15-15h17p15--17------15--------------|
|----------------------------18-17-18-17-18-----------------------------------------|
|-----------------------------------------------------------------------------------|

|-------------------------------------------------------------------------|
|--18---------18-18--20--18-16-15-16-18-----------------15-15-16-18-15----|
|------15-15------------------------------15-15------15----------------17-|
|-------------------------------------------------17----------------------|
|-------------------------------------------------------------------------|
|-------------------------------------------------------------------------|

|-----------------------------------------------------------------------------------|
|----------------------------------------------------------------------15-----16-15-|
|--15--14-15------14-15----------------------------------------15----------17-------|
|--------------15---------15----------------15-15-15h17p15--17------15--------------|
|----------------------------18-17-18-17-18-----------------------------------------|
|-----------------------------------------------------------------------------------|

It seemed like you added some extra notes. You really shouldn't do this unless you have a midi or recording to go along with the song. It might sound good to you, but other people listening to the original song won't understand how those notes are meant to be played. You also shouldn't add slides that are not in the song, so I removed those.

----------

My Original Songs - https://soundcloud.com/hslesperance

Sorry, if you had to do a lot

Ranulf

I will not join your gametabs.

Joined: Oct 15 2009

Sorry, if you had to do a lot of work, and thanks...and should I should put a new txt file up or what?

Edit: Tab

No problem, that was a fun

hslesperance

Location: Walpole, MA

Joined: Aug 10 2008

No problem, that was a fun song to play. And there were only a few changes to make http://www.gametabs.net/kingdom-hearts/simple-and-clean-0

----------

My Original Songs - https://soundcloud.com/hslesperance