You're looking at an archived, read-only version of our old community forum. See our new community forum here.

Touhou PoFV/StB: Wind God Girl

ChelseaRare

Location: New York

Joined: Dec 01 2008

Wind God Girl WIP

Been working on this for a while. It's like 99% done. I can't get measures 2-4 and 11 :S

Also measure 35 is only played when you repeat that section. The first time just hold the last note in 34.

Hmm

nathan777

Joined: Dec 06 2009

Wats this from tohou??? is that a game the song is really catchy nice man ^.^

----------

I love you :3

Yeah it's from a pretty

ChelseaRare

Location: New York

Joined: Dec 01 2008

Yeah it's from a pretty popular shooter game series. Thank you

Oh and I'm a girl =)

----------

(.?!)

grrrrrr rex has been tabbing

Jacob31593

Location: Tampa, FL

Joined: Jan 04 2009

grrrrrr rex has been tabbing this for the longest time so i decided i wouldnt, only to find that he hasnt worked on it at all and someone else is about to finish it!

grrr

snipe her Jacob

SalemJeanette

Save Your Tears.

Location: Popular Land.

Joined: Jul 03 2009

snipe her Jacob

----------


23:33 Vic9mm said: its ture ida benn gone she took out like 3 kids before had what was that fat ass asian kid gonna do

Little J.

Re: grrrrrr rex has been tabbing

ChelseaRare

Location: New York

Joined: Dec 01 2008

Jacob31593 said

grrrrrr rex has been tabbing this for the longest time so i decided i wouldnt, only to find that he hasnt worked on it at all and someone else is about to finish it!

Haha sorry.
Next time I decide to tab a Touhou song I guess I'll have to get the okay from you beforehand?

----------

(.?!)

hehe, good job Chelsea here's

RexLeRouge

IMPACTO

Joined: Aug 15 2008

hehe, good job Chelsea

here's what I have for your missing parts:

Intro

     |---3--|   |---3--|  |---3--|   |--3--|   
     E  E   E   E   E  E  E  E   E   E  E  E   
E||--8---------11---------8-------------------|
B||-----9----------11--8-----9------11--8-----|
G||--------10-------------------10---------8--|
D||-------------------------------------------|
A||-------------------------------------------|
E||-------------------------------------------|


  |---3--|                             
  E   E  E   E.   S S S S  S S  S  E   
--8---------11--------8-----------16--|
---------9--------------9------11-----|
-----10----------10-L-----10-9--------|
--------------------------------------|
--------------------------------------|
--------------------------------------|


  |---3---|   |---3---|                           
  E   E   E   E   E   E   S  S  S  S  S  S  S  S  
--L----------15-------------16-15-16-15----------|
-----18----------16---------------------17-------|
---------17----------15--17----------------15----|
----------------------------------------------17-|
-------------------------------------------------|
-------------------------------------------------|


   S  S  E   S  S  E   S  S  E   S  E.      W                 
--------20--------18--------16-----12---|--13----------------|
-----18--------16-----------------------|--------------------|
--17--------15--------13-15-----12------|--------------------|
----------------------------------------|--------------------|
----------------------------------------|--------------------|
----------------------------------------|--------------------|


Measure 11

  |---3---|   |---3---|                         
  E   E   E   E   E   E   S  S  S  S  S  S  E   
-----------------------------------------------|
---------13--11--------------------------------|
--L--13----------12------10-13-12-13-12--------|
---------------------13-----------------13-10--|
-----------------------------------------------|
-----------------------------------------------|

Rex, I pretty much got the

ChelseaRare

Location: New York

Joined: Dec 01 2008

Rex, I pretty much got the same exact thing, but thank you :)

I guess I'll just put the final thing here instead of starting a new thread...
Wind God Girl ZIP

----------

(.?!)

http://www.gametabs.net/touho

RexLeRouge

IMPACTO

Joined: Aug 15 2008

http://www.gametabs.net/touhou-9-phantasmagoria-flower-view/wind-god-girl

Forgot about that one, sorry -_-'