Ads

Final Chapter (Fire Emblem Geneology of the Holy War) Guitar Tab

Submitted: Oct 26, 2019 by thunderbulb (Last updated: Nov 16, 2019)

0
Download | Listen
Game: Fire Emblem Geneology of the Holy War
Composer(s): Yuka Tsujiyoko
Style: 2 or more instruments, Arrangement
Series: Fire Emblem

AutoScroll: Slow | Medium | Fast
Fire Emblem Geneology of the Holy War - Final Chapter

Section A could be transposed up an octave to be closer to the original, however
how it is now makes a nice contrast to when section B starts (the 'flute' ish bit.)
SectionC1 and C2 are played at the same time, if playing alone you can use an open 
string D before playing section C1 to fill in some space.

  Intro
e|---------------------------------------------------------------------------|
B|---------------------------------------7-10--------------------------------|
G|---9-7-----------7-------10-8----8---8-------------------------------------|
D|-7-----10-9----9---10---------10---7---------------------------------------|
A|------------10--------10---------------------------------------------------|
E|---------------------------------------------------------------------------|
  Section A
e|---------------------------------------------------------------------------|
B|---------------------------------------------------------------------------|
G|---------------------------------------------------------------------------|
D|---7-5-4----------7-5-4-------4-5~-----------------------------------------|
A|-5-------7-5-7~-5-------7-5-7----------------------------------------------|
E|---------------------------------------------------------------------------|

e|---------------------------------------------------------------------------|
B|------------------------------------------------------------6--------------|
G|---4~-7~-----------------------5--------------------------5---7~-----------|
D|-7-------5-4~-7p5p4~-4-5-----5---7-3~-3-5~-7-3-5~-7-3-5~-------------------|
A|-------------------------5-5-----------------------------------------------|
E|---------------------------------------------------------------------------|
  Section B
e|--------10-8----------------------8----------8-10--------------------------|
B|---6-8~------11-10~----8-10~-8-10---11-10-11------8-10-11-11~-10-8-6~------|
G|-8------------------10-----------------------------------------------------|
D|---------------------------------------------------------------------------|
A|---------------------------------------------------------------------------|
E|---------------------------------------------------------------------------|
  Section C1
               x2
e|------8-----|------8-------8-5-8-8~8-7-5-7-9~------------------------------|
B|----8---8---|----8---8---8-------------------------------------------------|
G|--5-------7-|--5-------5---------------------------------------------------|
D|------------|--------------------------------------------------------------|
A|------------|--------------------------------------------------------------|
E|------------|--------------------------------------------------------------|
  Section C2
                   x2
e|----------------|----------------------------------------------------------|
B|----------------|----------------------------------------------------------|
G|----------------|----------------------------------------------------------|
D|-------5--------|-----10-7-10-10~-10-9-7-9-11~-----------------------------|
A|-5-7-8---8-5-7~-|-5-7------------------------------------------------------|
E|----------------|----------------------------------------------------------|
Login or Register to remove this ad.