Chapter 2 (Fire Emblem Geneology of the Holy War) Guitar Tab

Submitted: Jan 21, 2019 by thunderbulb (Last updated: Feb 11, 2019)

4
Average: 4 (1 vote)
Download | No audio :(
Game: Fire Emblem Geneology of the Holy War
Composer(s): Yuka Tsujiyoko
Style: Transcription
Series: Fire Emblem

AutoScroll: Slow | Medium | Fast
Fire Emblem Genelogy of the Holy War - Chapter 2

I like to play this with an octave up and chorus effect.
Playing it in the upper register only sounds a little empty hence the tabbing as below.
Drop D tuning

e|-------------------------------------------------------|
B|-------------------------------------------------------|
G|-------------------------------------------------------|
D|-------2-1----------------------------------2-1---1----|
A|-0-2-4-----2-4-0-2-4-2-0-2---0-------0-2--4-----2---4~-|
D|---------------------------6---6-4-6-------------------|

e|---------------------------|-----------------------------------------------------|
B|---------------------------|-----------------------------------------------------|
G|---------------------------|-----------------------------------------------------|
D|---------------------------|-----------------------------------------------------|
A|-0-2-4-2-0-2---0-----------|--------------------------------------------0~-3-2-0-|
D|-------------6---6-4-6-4-2-|-0-2-4~-0-2-4-2-4-5~-2-4-5-2-4-5~-2-4-5-4-5----------|

e|-------------------------------|------------------------------------------------------|
B|-------------------------------|------------------------------------------------------|
G|-------------------------------|-----4-5-7-9-----------5-4-------------4---4---7------|
D|---5-4-2-----------2-4-5-7-5-4-|-5-7---------9-7-4-5-7-----7-7-5-4-5-----7---7---0-5~-|
A|-2-------5-3---0-2-------------|-------------------------------------7----------------|
D|-------------5-----------------|------------------------------------------------------|

e|-----------------------------------------|
B|-----------------------------------------|
G|-----4-4~-4-2--------4-2-----------------|
D|-5-7----------2-4-5~-----2-4-5~-5-4-2-0~-|
A|-----------------------------------------|
D|-----------------------------------------|

Login or Register to remove this ad.