Ads

Lost in Thoughts All Alone (Fire Emblem Fates) Guitar Tab

Submitted: May 17, 2020 by thenerevarin (Last updated: May 19, 2020)

0
Download | No audio :(
Game: Fire Emblem Fates
Composer(s): Masato Kouda, Hiroki Morishita, Takeru Kanazaki, Yasuhisa Baba, Rei Kondoh
Style: Fingerstyle
Series: Fire Emblem

AutoScroll: Slow | Medium | Fast
Title: Lost in Thoughts All Alone (Fire Emblem Fates)
Artist: Hiroki Morishita
Album: Fire Emblem Fates Original Soundtrack
Music: Arr. by Thenerevarin
Tabber: Thenerevarin
Tempo = 124
Steel Guitar



E |--------0h-1----------|--------0h-1----------|--------0h-1----------|
B |----------------------|----------------------|----------------------|
G |-----2----------------|-----2----------------|-----2----------------|
D |--0-------------------|--0-------------------|--0-------------------|
A |----------------------|----------------------|----------------------|
E |----------------------|----------------------|----------------------|


--------0h-1----------||-5-----------3s-8-------|--5-----------3s-8-------|
----------------------||-------------------3----|-------------------------|
-----2----------------||o-----------------------|--------------------5----|
--0-------------------||o-----------------------|-------------------------|
----------------------||------------------------|-------------------------|
----------------------||------------------------|-------------------------|


--5----------|--3--1--0-------------|-----------------5-------|----------------|
-----3-------|----------------------|--3----------------------|--3-----1-------|
--------3----|-----------2----------|--------------5----------|----------------|
-------------|----------------------|-------------------------|----------------|
-------------|-----------------3----|--------------------1----|-----------3----|
-------------|----------------------|-------------------------|----------------|


--------------5--3-------|--5--0-------|--5-----------3s-8-------|
--3----------------------|-------------|--------------------3----|
-------------------------|-------------|-------------------------|
-------------------------|-------------|-------------------------|
--------------------1----|--------3----|-------------------------|
-------------------------|-------------|-------------------------|


--5-----------3s-8-------|--5----------|--3--1--0-------------|
-------------------------|-----3-------|----------------------|
--------------------5----|--------3----|-----------2----------|
-------------------------|-------------|----------------------|
-------------------------|-------------|-----------------3----|
-------------------------|-------------|----------------------|


-----------------5-------|----------------|----------------|--------5-------|
--3----------------------|--3-----1-------|--3-----1-------|--3-------------|
--------------5----------|----------------|-----2----------|----------------|
-------------------------|----------------|-----------0----|----------------|
--------------------1----|-----------3----|----------------|-----------5----|
-------------------------|----------------|----------------|----------------|


--10-8-------|--5----------|--------------5--7-------------|--8--7-------|
-------------|-------------|-------------------------------|-------------|
-------------|--5----------|--5-----------------------5----|-------------|
-----8-------|-------------|-------------------------------|-----7-------|
-------------|--------3----|-------------------------------|-------------|
--6----------|-------------|-------------------------------|--------5----|


--3----------|--------------3--5-------------|--6--5----------|
-------------|-------------------------------|----------------|
--0----------|--2-----------------------0----|----------------|
-------------|-------------------------------|--------3-------|
-------------|-------------------------------|-----------3----|
-----3--3----|-------------------------------|----------------|


--1--3--0-------------|-------------------------|-------------------------|
----------------------|--3--5--3--------1-------|--3--5--3--------1-------|
----------------------|-------------------------|--------------------3----|
-----------3----------|-------------------------|-------------------------|
----------------------|--------------------1----|-------------------------|
-----------------1----|-------------------------|-------------------------|


-------------------------|-----5--5-----3----------------|--5-------|--7-------|
--3--5--3--------1-------|--3-----------------------1----|--3-------|--5-------|
-------------------------|-------------------------------|--3-------|--4-------|
-------------------------|-------------------------------|--3-------|--4-------|
--------------------3----|--------------------3----------|----------|----------|
-------------------------|-------------------------------|----------|----------|


--7-----------5s-10------|--7-----------5s-10------|--7----------|
--5----------------------|-------------------------|-------------|
--------------------0----|--7----------------------|-------------|
-------------------------|-------------------------|-----9-------|
-------------------------|--------------------0----|--7----------|
-------------------------|-------------------------|--------0----|


--5--3--2-------------|--0--------------7-------|----------------------|
--7--5--3-------------|--1----------------------|--5-----3-------------|
----------------------|--------------7----------|----------------------|
-----------------0----|-------------------------|----------------------|
----------------------|-------------------------|-----------5----------|
----------------------|--------------------3----|-----------------5----|


--0-----------7--5-------|--7----------|--12----------5s-10------------|
-------------------------|--5----------|--12---------------------------|
-------------------------|--4----------|--------------------0-----0----|
-------------------------|--------0----|-------------------------------|
--------------------3----|--------0----|-------------------------------|
-------------------------|-------------|-------------------------------|


--14----------5s-10------------|--12---------|--10-10-10------|
--12---------------------------|--12---------|--10-8--7-------|
-------------------------------|-------------|----------------|
--------------------------0----|--------9----|----------------|
--------------------0----------|-------------|----------------|
-------------------------------|-----0-------|----------------|


--7--------------19------------|----------------------|--12------------|
--5-----------15---------------|--17----15------------|--12------------|
--4-----------------------0----|----------------------|----------------|
-------------------------------|-----------0----------|----------------|
-------------------------------|-----------------0----|-----------5----|
-------------------------------|----------------------|-----0--7-------|


-----0----|---------|||
----------|---------|||
-----9----|--------o|||
-----9----|--------o|||
-----7----|---------|||
-----0----|---------|||


Legend
L - tied note
x - dead note
h - hammer on/pull off
b - bend
s - slide
~ - vibrato
g - ghost note
> - accentuated note
t - trill
M - palm mute
. - staccato
P - popping (bass)
S - slapping (bass)
+ - tapping
W - wide vibrato
< - fade in
w - whammy bar
= - tremolo picking
v - brush up
^ - brush down
V - pick stroke up
n - pick stroke down
Login or Register to remove this ad.

1 comment on Lost in Thoughts All Alone

Wrong tabs

I don't why but some note don't appear in the tabs