Ads

Alleyway (Final Fight) Guitar Tab

Submitted: Feb 10, 2011 by Hadacard (Last updated: Feb 10, 2011)

0
Download | Listen
Game: Final Fight
Composer(s): Yoshihiro Sakaguchi, Yoko Shimomura
Style: Transcription

This song is also called Stage 2 - Part 3

AutoScroll: Slow | Medium | Fast
Stage 2 - Part 3 - Alleyway
Final Fight
Yoshihiro Sakaguchi/Yoko Shimomura
Hadacard
4/1/2011

Note: The song starts at 5:11 in the video link, which should automatically load to that time

This tune is so underrated so I thought I'd listen to it and tab it out!  Absolutely awesome, in the key of B I believe.  There's the lead, bass and another bit but I've only done the lead, mainly cus I can't do the others!

Verse

E|7------7-10-9-10p9p7------4-5-7-----7-10-12-----12----10p8h10---|
B|-------------------------------------------------------------8--|
G|----------------------------------------------------------------|
D|----------------------------------------------------------------|
A|----------------------------------------------------------------|
E|----------------------------------------------------------------|

E|10----8p6h8----8-7p5h7--5p3h5--3p1h3--1p0-----------------------|
B|-----------6-----------------------------3----1--3--5--1--0--1--|
G|----------------------------------------------------------------|
D|----------------------------------------------------------------|
A|----------------------------------------------------------------|
E|----------------------------------------------------------------|


E|-------------------------------6--10-10-8-6-5--6--10-10-8-6-5---|
B|3--5--6--8--10--6--5--6--8--10----------------------------------|
G|----------------------------------------------------------------|
D|----------------------------------------------------------------|
A|----------------------------------------------------------------|
E|----------------------------------------------------------------|

E|10--13-13-11p10p8--6p5--3------12p7-----------------------------|
B|----------------------------------------------------------------|
G|----------------------------------------------------------------|
D|----------------------------------------------------------------|
A|----------------------------------------------------------------|
E|----------------------------------------------------------------|
Login or Register to remove this ad.