Town (Final Fantasy) Bass Tab

Submitted: Aug 11, 2009 by auriplane (Last updated: Aug 11, 2009)

5
Average: 5 (1 vote)
Download | No audio :(
Game: Final Fantasy
Composer(s): Nobuo Uematsu
Style: Transcription
Series: Final Fantasy

AutoScroll: Slow | Medium | Fast
                       Final Fantasy 1 - Town BASS TAB 
                             Song by Nobuo Uematsu

                   Tabbed by auriplane ([email protected])

Four-string bass, standard tuning.

G |------------------------|------------------------|
D |10----------9-----------|7-----------------------|
A |------------------------|------------10----------|
E |------------------------|------------------------|
    
G |------------------------|------------------------|
D |------------------------|10----------------------|
A |8-----------------------|------------7-----------|
E |------------------------|------------------------|
                                       
G |------14----------11----|------12----------------|
D |---14----14-12----------|---12----12-10----------|
A |12----------------------|10----------------------|
E |------------------------|------------------8-----|
                                       
G |---------5--7-----------|------0--2--4--2--0-----|
D |------8-----------------|------------------------|
A |---8--------------------|---5--------------------|
E |6-----------------------|3-----------------------|
Login or Register to remove this ad.