Prologue (Duet) (Final Fantasy) Guitar Tab

Submitted: Aug 27, 2014 by ForestMarth

4
Average: 4 (3 votes)
Download | Listen
Game: Final Fantasy
Composer(s): Nobuo Uematsu
Style: 2 or more instruments, Arrangement, Natural harmonics
Series: Final Fantasy

AutoScroll: Slow | Medium | Fast
                          Main Theme - Final Fantasy

Composed by : Nobuo Uematsu

Arrangement and tab by : ForestMarth

Platform : NES


Here is an arrangement I wrote for an official contest
(concerning the release of the game THEATRHYTHM FINAL FANTASY CURTAIN CALL).
I wrote it in 3/4 (while the original time signature is 4/4),
and I also changed the chord progression compared to the original tune.





Guitar 1 (Harmony)


     F                 Bb                F                 Am              
     E  E  H           E  E  H           E  E  H           E  E  H         
E||-----------------|-----------------|-----------------|-----------------|
B||-----------------|--------3--------|-----------------|--------1--------|
G||--------2--------|-----------------|--------2--------|-----------------|
D||-----------------|-----3-----------|-----------------|-----2-----------|
A||-----3-----------|--1--------------|-----3-----------|--0--------------|
E||--1--------------|-----------------|--1--------------|-----------------|


  Dm                G                 Em7                 A               
  E  E  H           E  E  H           E   E  Q    Q       E  E  H         
--------1--------|-----------------|-------------------|--------0--------|
-----------------|--------0--------|--------------3----|--2--------------|
-----2-----------|-----------------|---------0---------|-----2-----------|
--0--------------|-----0-----------|-------------------|-----------------|
-----------------|-----------------|------2------------|--0--------------|
-----------------|--3--------------|--0----------------|-----------------|


  FMA7                 BbMA7                     FMA7            
  E    E   H           E      E   Q.      E      H         Q     
--------------------|-------------8------10--|---8--------------|
----------10--------|------------10----------|--10--------10----|
-----------9--------|--------10--------------|---9--------------|
-------7------------|--8---------------------|------------------|
--8-----------------|------------------------|---8--------------|
--------------------|------------------------|------------------|


   Csus4            Dm                   G/D              Em/B            
   H.               Q     Q     Q        H.               H         Q     
---8------------|--10----13----12----|--10------------|--12--------10----|
---8------------|--10----------------|--12------------|--12--------------|
--10------------|--10----------------|--12------------|--12--------------|
--10------------|--12----------------|--12------------|---9--------------|
----------------|--------------------|----------------|------------------|
----------------|--------------------|----------------|------------------|


   A/C#             Bb               Am/C             Db6MA7        
   H.               H.               H.               H.            
---9------------|--10------------|---8------------|----------------|
--10------------|--11------------|--10------------|--11------------|
---9------------|--10------------|---9------------|--10------------|
--11------------|---8------------|--10------------|--10------------|
----------------|----------------|----------------|----------------|
----------------|----------------|----------------|---9------------|


   F                   Eb/G             Dm/F             DbMA7add6     
   Q    Q     Q        H.               H.               H.            
--------8----10----|--11------------|--10------------|---8------------|
--10---------------|--11------------|--10------------|---9------------|
--10---------------|---8------------|---7------------|--10------------|
--10---------------|----------------|----------------|---8------------|
---8---------------|--10------------|---8------------|----------------|
-------------------|----------------|----------------|---9------------|


  EbMA7add6           F                              
  H         E  E      H.               H.            
--8---------L--8--|---8------------|---8------------|
--8---------L-----|--10------------|--10------------|
--7---------L-----|--10------------|--10------------|
--5---------L-----|--10------------|--10------------|
--6---------L-----|---8------------|---8------------|
------------------|----------------|----------------|


  FMA7add9                                          
                  NH        NH                      
  E         E     E   E     Q        H.             
-------------------------<>12----|---L------------||
---------------------10-----L----|---L------------||
---------------<>12---L-----L----|---L------------||
-----------10-----L---L-----L----|---L------------||
--8---------L-----L---L-----L----|---L------------||
---------------------------------|----------------||






Guitar 2 (Melody)


      Q.      E  E   E      Q     Q.     E      Q    E   E  E   E   
E||---------------------|-------------------|----------------------|
B||--------------8------|--11----10------8--|---------------8------|
G||----------10---------|-------------------|--10----9--10-----10--|
D||--10-------------10--|-------------------|----------------------|
A||---------------------|-------------------|----------------------|
E||---------------------|-------------------|----------------------|


   Q    H           Q.     E   E  E     Q    Q.      E     Q    E   E  E  E   
-----------------|-------------------|--8----7----------|--------------------|
-----------------|---------8--10-----|--------------10--|--8----7--10--8-----|
--10----9--------|--7-------------7--|------------------|-----------------7--|
-----------------|-------------------|------------------|--------------------|
-----------------|-------------------|------------------|--------------------|
-----------------|-------------------|------------------|--------------------|


   Q    H            Q.      E  E   E      Q     Q.     E   
-----------------|---------------------|-------------------|
--10----8--------|--------------8------|--11----10------8--|
-----------------|----------10---------|-------------------|
-----------------|--10-------------10--|-------------------|
-----------------|---------------------|-------------------|
-----------------|---------------------|-------------------|


   Q    E   E  E   E      Q    H           Q.     E   E  E     Q    Q.      E   
----------------------|-----------------|-------------------|--8----7----------|
---------------8------|-----------------|---------8--10-----|--------------10--|
--10----9--10-----10--|--10----9--------|--7-------------7--|------------------|
----------------------|-----------------|-------------------|------------------|
----------------------|-----------------|-------------------|------------------|
----------------------|-----------------|-------------------|------------------|


  Q    E   E  E  E     Q     H            H         Q       H         Q     
--------------------|--7--------------|--10--------10----|--8--------------|
--8----7--10--8-----|-------10--------|------------------|-----------10----|
-----------------7--|-----------------|------------------|-----------------|
--------------------|-----------------|------------------|-----------------|
--------------------|-----------------|------------------|-----------------|
--------------------|-----------------|------------------|-----------------|


   Q.      E  E  E      E  E   E  E   E  E      H         Q     
--------------------|--------------------8--|--11--------11----|
--11------10--8-----|-------------8--10-----|------------------|
-----------------9--|--10--9--10------------|------------------|
--------------------|-----------------------|------------------|
--------------------|-----------------------|------------------|
--------------------|-----------------------|------------------|


   H         Q       Q    E  E  E  E     Q     Q    Q        Q     H         
--10--------------|--8----8--9--8--9--|--8---------------|------------------|
------------11----|-------------------|-------11----8----|--10--------------|
------------------|-------------------|------------------|--------10--------|
------------------|-------------------|------------------|------------------|
------------------|-------------------|------------------|------------------|
------------------|-------------------|------------------|------------------|


   Q    H           H.              H.             
-----------------|---------------|---------------||
-----------------|---------------|---------------||
-----------------|---------------|---------------||
--10-------------|---------------|---------------||
--------8--------|---------------|---------------||
-----------------|--1------------|--L------------||




Duration Legend
---------------
W - whole
H - half
Q - quarter
E - 8th
S - 16th
T - 32nd
X - 64th
. - note dotted
|-n-|  - n-tuplets


Tablature Legend
----------------
L - tied note
NH - natural harmonic
Login or Register to remove this ad.