Ads

Prologue (Final Fantasy) Guitar Tab

Submitted: Feb 24, 2013 by Basisti94

5
Average: 5 (10 votes)
Download | Listen
Game: Final Fantasy
Composer(s): Nobuo Uematsu
Style: Arrangement, Fingerstyle, Natural harmonics
Series: Final Fantasy

This song is also called Final Fantasy Main Theme, Opening Theme

AutoScroll: Slow | Medium | Fast
                                Prologue / Final Fantasy Main Theme
                                
Final Fantasy I
Nobuo Uematsu
Arranged for guitar by Basisti94 (Miro Laaksonen)
22.2.2013


If you want to play it in original key, put capo to 5th fret.

  
Tempo ~ 110

     ^         ^            ^        ^            ^          ^          
     Q    Q    Q    Q       H        Q    Q       Q    E  E  Q    Q     
E||----------------------|--1--------0---------|-----------------------|
B||-------1----3---------|----------------3----|--1----0--1--3----1----|
G||--0---------0----0----|--2--------0---------|-----------------------|
D||--2---------0---------|---------------------|--3----------0---------|
A||--3---------2---------|--0--------2---------|--0--------------------|
E||----------------------|---------------------|-------------2---------|


  ^                    ^         ^            ^        ^          
  H        H           Q    Q    Q    Q       H        Q    Q     
--------------------|------------0---------|--3--------1----0----|
--1--------0--------|-------3--------------|---------------------|
--0-----------------|--2--------------2----|--2--------2---------|
--0-----------------|--3---------0---------|--0------------------|
--------------------|----------------------|-----------4---------|
--3-----------------|--1---------0---------|---------------------|


  ^          ^            ^        ^                                
  Q    E  E  Q    Q       H        H           Q    Q    Q    Q     
----------0------------|--0-----------------|----------------------|
--3----2-----3---------|--1--------3--------|-------1----3---------|
--2----------2----2----|--0--------4--------|--0---------0----0----|
--0----------4---------|-----------5--------|--2---------0---------|
-----------------------|--------------------|--3---------2---------|
-----------------------|--------------------|----------------------|


  H        Q    Q       Q    E  E  Q    Q       H        H         
--1--------0---------|-----------------------|--------------------|
----------------3----|--1----0--1--3----1----|--1--------0--------|
--2--------0---------|-----------------------|--0--------0--------|
---------------------|--3----------0---------|--0-----------------|
--0--------2---------|--0--------------------|--------------------|
---------------------|-------------2---------|--3--------3--------|


  Q    Q    Q    Q       H        Q    Q       Q    E  E  Q    Q     
------------0---------|--3--------1----0----|----------0------------|
-------3--------------|---------------------|--3----2-----3---------|
--2--------------2----|--2--------2---------|--2----------2----2----|
--3---------0---------|--0------------------|--0----------4---------|
----------------------|-----------4---------|-----------------------|
--1---------0---------|---------------------|-----------------------|

                            *
  H        Q    S  S S S    Q    Q    Q    Q       Q    Q    Q    Q     
--0--------------------3-|--5--------------5----|----------------------|
--1--------3----3h-5-6---|------------6---------|--8--------------5----|
--0--------4-------------|--5----5----5----5----|--5----5----5---------|
-----------5-------------|-------7--------------|-------5----5---------|
-------------------------|--8-------------------|--7-------------------|
--3--------3-------------|----------------------|----------------------|


  ^                                                                   
  Q    E  E  Q    Q       Q    Q    Q    Q       Q    Q    Q    Q     
--1----1--0------------|-----------------3----|--6--------------6----|
--1----------3----2----|--3----5----6---------|--6-------------------|
-------------2---------|--2---------3---------|-------8----8---------|
--0----------2---------|--0-------------------|-------8----8---------|
-----------------------|------------3---------|--6-------------------|
-----------------------|----------------------|----------------------|


  Q    Q    Q    Q       Q    E  E  Q    E  E     Q    Q    Q    Q     
--5-------------------|------------------------|----------------------|
-----------------6----|--8----8--9--8----8--9--|--8----6----5---------|
-------7----7---------|------------------------|--7--------------7----|
-------7----7---------|--6----------6----------|--5-------------------|
--5-------------------|--6----------6----------|----------------------|
----------------------|------------------------|----------------------|


  Q    Q    Q    Q       H        Q    Q       Q    E  E  Q    Q     
----------------------|--1--------0---------|-----------------------|
-------1----3---------|-----------0----3----|--1----0--1--3----1----|
--0----0----0----0----|--2--------0----4----|--2----2-----2----2----|
--2----2---------0----|--3-------------5----|--3----3-----4---------|
--3--------------2----|---------------------|------------------3----|
----------------------|---------------------|-----------------------|


  Q    E  E  Q    E  E     Q    Q    Q    Q       H        Q    Q     
------------------------|------------0---------|--3--------1----0----|
--1----------0----------|-------3--------------|--3--------2---------|
--0----------0----------|--2---------2----2----|--2--------2----2----|
------------------------|--0----3----2---------|--0-------------2----|
------------------------|-----------------0----|-----------0----0----|
--3----3--3--3----3--3--|----------------------|---------------------|

                        rall.
  Q    E  E  Q    Q       E  E  E  E  H           Q    Q    Q    Q     
----------0------------|--0--------------------|----------------------|
--3----2-----3---------|--------------3--------|-------1----3---------|
--2----2-----2----2----|--0--------0--0--------|--0--------------0----|
--0----3-----4----4----|--------0--------------|----------------------|
------------------5----|-----2--------2--------|--3---------2---------|
-----------------------|--3--------------------|----------------------|


  H        Q    Q       Q    E  E  Q    Q       H        H         
--1--------0---------|-----------------------|--------------------|
----------------3----|--1----0--1--3----1----|--1--------0--------|
---------------------|-----------------------|--------------------|
---------------------|-----------------------|--------------------|
--0--------2---------|--0--------------------|--------------------|
---------------------|-------------2---------|--3-----------------|


  Q    Q    Q    Q       H        Q    Q       Q    E  E  Q    Q     
------------0---------|--3--------1----0----|----------0------------|
-------3--------------|---------------------|--3----2-----3---------|
--2--------------2----|---------------------|------------------2----|
----------------------|--0------------------|--0----------4---------|
--0---------0---------|-----------4---------|-----------------------|
--1---------0---------|---------------------|-----------------------|


  ^                      NH                 
  W                      W                  
--0----------------|--<>12----------------||
--1----------------|----------------------||
--0----------------|--<>12----------------||
-------------------|----------------------||
-------------------|----------------------||
-------------------|----------------------||

                           


  * 
   Q    Q    Q    Q      
|--5--------------5----|
|------------6---------|
|--5----5----5----5----|
|-------7--------------|
|--8-------------------|
|----------------------|

Having capo on 5th fret makes this measure bit problematic (at least with my guitar),
so you might want to play it like this instead:

   Q    Q    Q    Q      
|--5--------------5----|
|-------6----6---------|
|-------5----5----5----|
|--3-------------------|
|----------------------|
|----------------------|


Duration Legend
---------------
W - whole
H - half
Q - quarter
E - 8th
S - 16th
T - 32nd
X - 64th
. - note dotted
|-n-|  - n-tuplets


Tablature Legend
----------------
rall. - slowly decrease tempo
L - tied note
x - dead note
p - pull off
b - bend
NH - natural harmonics
S - shift slide
s - legato slide
< - fade in
^ - brush up
v - brush down
Login or Register to remove this ad.

1 comment on Prologue

This is Great. Thank you ^_^

5

This is Great. Thank you ^_^