Prologue (Final Fantasy) Bass/Guitar Tab

Submitted: Mar 29, 2012 by hashel

5
Average: 5 (2 votes)
Download | Listen
Game: Final Fantasy
Composer(s): Nobuo Uematsu
Style: 2 or more instruments, Alternate picking, Arrangement
Series: Final Fantasy

This song is also called Main Theme

AutoScroll: Slow | Medium | Fast
Title: Final Fantasy
SubTitle: Main Theme - Prologue
Artist: Nobuo Uematsu
Album: FF OST
Copyright: Squaresoft
Tabber: Hashel05
Tempo = 110

PLZ dl gp5 file for all the tracks

Melody

E |----|--12------------|--12-------15---|--12------------|----------------|
B |----|-----13-15------|-----13-15------|-----13-15------|-----11-13------|
G |----|-----------12---|----------------|-----------12---|--10-------10---|
D |----|----------------|----------------|----------------|----------------|
A |----|----------------|----------------|----------------|----------------|
E |----|----------------|----------------|----------------|----------------|


--11----10------|----------------------------|----------|----------------|
-----------13---|--11----10-11-13----11------|--11-10---|-----13-15------|
----------------|----------------------------|----------|--12-------12---|
----------------|----------------------------|----------|----------------|
----------------|----------------------------|----------|----------------|
----------------|----------------------------|----------|----------------|


--13------------|----------------------------|----------|----------------|
--------16-15---|--13----12-15-13------------|--15-13---|-----11-13------|
----------------|--------------------12------|----------|--10-------10---|
----------------|----------------------------|----------|----------------|
----------------|----------------------------|----------|----------------|
----------------|----------------------------|----------|----------------|


--11----10------|----------------------------|
-----------13---|--11----10-11-13----11------|
----------------|----------------------------|
----------------|----------------------------|
----------------|----------------------------|
----------------|----------------------------|


----------------------------------------------------|----------------|
--11----------------10h11h10------------------------|-----13-15------|
----------------------------------------------------|--12-------12---|
----------------------------------------------------|----------------|
----------------------------------------------------|----------------|
----------------------------------------------------|----------------|


--13----11-10---|----------------------------|----------|--15-------15---|
----------------|--13----12-15-13------------|--15-13---|----------------|
----------------|--------------------12------|----------|----------------|
----------------|----------------------------|----------|----------------|
----------------|----------------------------|----------|----------------|
----------------|----------------------------|----------|----------------|


--13-------10---|--11----11-10---------------|-----10-11-13---|--16-------15b--|
----------------|--------------13----12------|--13------------|----------------|
----------------|----------------------------|----------------|----------------|
----------------|----------------------------|----------------|----------------|
----------------|----------------------------|----------------|----------------|
----------------|----------------------------|----------------|----------------|


--15-------11---|--13----------13----14----13----------13----14------|
----------------|----------------------------------------------------|
----------------|----------------------------------------------------|
----------------|----------------------------------------------------|
----------------|----------------------------------------------------|
----------------|----------------------------------------------------|


--13-11-10------|----------------|--11----10------|----------------------------|
-----------13---|-----11-13------|-----------13---|--11----10-11-13----11------|
----------------|--10-------10---|----------------|----------------------------|
----------------|----------------|----------------|----------------------------|
----------------|----------------|----------------|----------------------------|
----------------|----------------|----------------|----------------------------|


----------|----------------|--13----11-10---|----------------------------|
--11-10---|-----13-15------|----------------|--13----12-15-13------------|
----------|--12-------12---|----------------|--------------------12------|
----------|----------------|----------------|----------------------------|
----------|----------------|----------------|----------------------------|
----------|----------------|----------------|----------------------------|


----------|----------------|--11----10------|----------------------------|
--15-13---|-----11-13------|-----------13---|--11----10-11-13----11------|
----------|--10-------10---|----------------|----------------------------|
----------|----------------|----------------|----------------------------|
----------|----------------|----------------|----------------------------|
----------|----------------|----------------|----------------------------|


----------------------------------------------------|----------------|
--11----------------10h11h10------------------------|-----13-15------|
----------------------------------------------------|--12-------12---|
----------------------------------------------------|----------------|
----------------------------------------------------|----------------|
----------------------------------------------------|----------------|


--13----11-10---|----------------------------|----------|--13b------13b--|
----------------|--13----12-15-13------------|--15-13---|----------------|
----------------|--------------------12------|----------|----------------|
----------------|----------------------------|----------|----------------|
----------------|----------------------------|----------|----------------|
----------------|----------------------------|----------|----------------|


--13-------10---|--11----11-10---------------|-----10-11-13---|--16-------15b--|
----------------|--------------13----12------|--13------------|----------------|
----------------|----------------------------|----------------|----------------|
----------------|----------------------------|----------------|----------------|
----------------|----------------------------|----------------|----------------|
----------------|----------------------------|----------------|----------------|


--15-------11---|--13----------13----14----13----------13----14------|
----------------|----------------------------------------------------|
----------------|----------------------------------------------------|
----------------|----------------------------------------------------|
----------------|----------------------------------------------------|
----------------|----------------------------------------------------|


--13-11-10------|----------------|--11----10------|----------------------------|
-----------13---|-----11-13------|-----------13---|--11----10-11-13----11------|
----------------|--10-------10---|----------------|----------------------------|
----------------|----------------|----------------|----------------------------|
----------------|----------------|----------------|----------------------------|
----------------|----------------|----------------|----------------------------|


----------||
--11-10---||
----------||
----------||
----------||
----------||



Bass

G |----|----|----|----|----------|----------|----------|-------|----------|
D |----|----|----|----|----------|----------|----------|-------|--1--0----|
A |----|----|----|----|--1--0----|----------|----------|-------|----------|
E |----|----|----|----|----------|--3--1----|-----0----|--1----|----------|


----------|----------|----------|----------|----------|----------|-------|
----------|----------|----------|----------|----------|----------|-------|
--3--2----|--3--1----|--0-------|--1--0----|----------|----------|-------|
----------|----------|-----1----|----------|--3--1----|-----0----|--1----|


----------|----------|----------|----------|--------------------0--2----|
--1--0----|----------|----------|----------|--1-----1--0--1--3----------|
----------|--3--2----|--3--1----|--0-------|----------------------------|
----------|----------|----------|-----1----|----------------------------|


--3-------------|----------------|----------|----------------|----------------|
--------3--0----|----------------|----------|----------------|-----------5----|
----------------|-----------2----|--3--1----|--4--------4----|--3-------------|
----------------|--4-----3-------|----------|----------------|----------------|


----------------------------|-------|----------|----------|----------|-------|
--3-----3--4----------------|--3----|-----7----|----------|----------|-------|
-----------------3--4--6----|-------|----------|----------|----------|-------|
--------------6-------------|-------|--6-------|--3--1----|-----0----|--1----|


----------|----------|----------|----------|----------|----------|----------|
--1--0----|----------|----------|----------|----------|----------|----------|
----------|--3--2----|--3--1----|--0-------|--1--0----|----------|----------|
----------|----------|----------|-----1----|----------|--3--1----|-----0----|


-------|----------|----------|----------|----------|
-------|--1--0----|----------|----------|----------|
-------|----------|--3--2----|--3--1----|--0-------|
--1----|----------|----------|----------|-----1----|


--------------------0--2----|--3-------------|----------------|----------|
--1-----1--0--1--3----------|--------3--0----|----------------|----------|
----------------------------|----------------|-----------2----|--3--1----|
----------------------------|----------------|--4-----3-------|----------|


----------------|----------------|----------------------------|-------|
----------------|-----------5----|--3-----3--4----------------|--3----|
--4--------4----|--3-------------|-----------------3--4--6----|-------|
----------------|----------------|--------------6-------------|-------|


----------|----------|----------|-------||
-----7----|----------|----------|-------||
----------|----------|----------|-------||
--6-------|--3--1----|-----0----|--1----||
Login or Register to remove this ad.