Prologue (Final Fantasy) Guitar Tab

Submitted: Jun 05, 2009 by TheDoomOfAllFires (Last updated: Oct 12, 2011)

5
Average: 5 (6 votes)
Download | Listen
Game: Final Fantasy
Composer(s): Nobuo Uematsu
Style: Arrangement, Fingerstyle
Series: Final Fantasy

This song is also called Opening Theme

AutoScroll: Slow | Medium | Fast
Final Fantasy - Opening Theme
Arranged by TheDoomOfAllFires; 06/05/2009

BPM=60
Drop-D tuning
Capo. 2


Hope you like it ! ^^



      E  E  E  E  E  E  E  E     E  S S E  E  E  E  E  E   
E||---------0-----3-----2--0--|---------0-----------------|
B||------3--------------3-----|--3--2-3----3--3-----2-----|
G||*--2--------2-----0--------|-----2---0-----2-----2-----|
D||*--4-----------------------|------------------2-----2--|
A||---5-----0-----------------|---------------0-----------|
D||---------------5-----------|--5------------------------|


  E  E  E  E  E  E  E  E     E  S S E  E  Q    Q       
-----0--2-----5-----3--2--|--0----2-0-----2----0-----||
--0-----------------5-----|-----4------0-------2-----||
--0--------4--------------|-----4---0----------2----*||
-----------4-----2--------|-------------------------*||
--------2-----------------|---------------0----------||
--2-----------2-----------|--2-----------------------||


  Q    E  E  E  E  E  E     E  S S E  E  E  E  E  E   
--7-------7--5-----2-----|--3--3-2-0-----0--2--3--5--|
-------------------3-----|--0--0------4--------5-----|
-------0-----------------|---------0--4--------------|
-------0--------4-----4--|---------------2-----------|
-------------------------|------------2--------------|
--5----------4-----------|--2------------------------|


  E  E  E  E  E  E  E  E     E  S S E  S S E  E  E  E   
--8--------8--7--------3--|--5--5-6-5--5-6-5--3--2--0--|
--------------------0-----|-----6------6---------3-----|
--------5-----------------|----------------------------|
-----7-----------5--------|--0------0------------------|
--8-----------7-----------|----------------0-----------|
--------------------------|----------------------------|


    E  E  E  E  E  E  E  E     E  S S E  E  E  E  E  E   
|---------0-----3-----2--0--|---------0-----------------|
|------3--------------3-----|--3--2-3----3--3-----2-----|
|*--2--------2-----0--------|-----2---0-----2-----2-----|
|*--4-----------------------|------------------2-----2--|
|---5-----0-----------------|---------------0-----------|
|---------------5-----------|--5------------------------|


  E  E  E  E  E  E  E  E     E  S S E  E  Q    Q       
-----0--2-----5-----3--2--|--0----2-0-----2----0-----||
--0-----------------5-----|-----4------0-------2-----||
--0--------4--------------|-----4---0----------2----*||
-----------4-----2--------|-------------------------*||
--------2-----------------|---------------0----------||
--2-----------2-----------|--2-----------------------||


  Q    E  E  E  E  E  E     E  S S E  E  E  E  E  E   
--7-------7--5-----2-----|--3--3-2-0-----0--2--3--5--|
-------------------3-----|--0--0------4--------5-----|
-------0-----------------|---------0--4--------------|
-------0--------4-----4--|---------------2-----------|
-------------------------|------------2--------------|
--5----------4-----------|--2------------------------|


                                                          ^                  
  E  E  E  E  E  E  E  E     E  S S E  S S E  E  E  E     W                  
--8--------8--7--------3--|--5--5-6-5--5-6-5--3--2--0--|-------------------||
--------------------0-----|-----6------6---------3-----|--3----------------||
--------5-----------------|----------------------------|--2----------------||
-----7-----------5--------|--0------0------------------|--4----------------||
--8-----------7-----------|----------------0-----------|--5----------------||
--------------------------|----------------------------|--0----------------||




Duration Legend
---------------
W - whole
H - half
Q - quarter
E - 8th
S - 16th
T - 32nd
X - 64th
. - note dotted
|-n-|  - n-tuplets


Tablature Legend
----------------
L - tied note
x - dead note
g - grace note
(n) - ghost note
> - accentuded note
NH - natural harmonic
AH - artificial harmonic
TH - tapped harmonic
SH - semi harmonic
PH - pitch harmonic
h - hammer on
p - pull off
b - bend
br - bendRelease
pb - preBend
pbr - preBendRelease
brb - bendReleaseBend
\n/ - tremolo bar dip
\n - tremolo bar dive
-/n - tremolo bar Release up
/n\ - tremolo bar inverted dip
/n - tremolo bar return
-\n - tremolo bar Release down
S - shift slide
s - legato slide
/ -  slide into from below or out of upwards
\ -  slide into from above or out of downwards
~ - vibrato
W - wide vibrato
tr - trill
TP - tremolo picking
T - tapping
S - slap
P - pop
< - fade in
^ - brush up
v - brush down
Login or Register to remove this ad.

1 comment on Prologue

excellent!

fabulous