Prologue (Final Fantasy) Guitar Tab

Submitted: May 16, 2010 by Daugreano (Last updated: Aug 05, 2010)

0
Download | Listen
Game: Final Fantasy
Composer(s): Nobuo Uematsu
Style: Alternate picking, Arrangement
Series: Final Fantasy

AutoScroll: Slow | Medium | Fast
Song: Prologue
Game: Final Fantasy
Composer: Nobuo Uematsu
Tabbed by: Daugreano


Guitar:

   E   E   E   E   E   E   E   E     E   S  S  E   E   E   E   E   E     E   E   E   E   E   E   E   E
E|-----------------4-------3---4---|-----------------------------------|---------3-------6-------4---3---|
B|-----4---6-----------------------|-4---3--4--6---4---4---6---3---6---|-----6---------------6-----------|
G|-3-----------3-------1-----------|-----------------------------------|-5-----------5-------------------|
D|---------------------------------|-----------------------------------|---------------------------------|
A|---------------------------------|-----------------------------------|---------------------------------|
E|---------------------------------|-----------------------------------|---------------------------------|

   E   S  S  E   E   Q    Q      Q    E   E   E   E   E   E     E   S  S  E   E   E   E   E   E
E|--------3----------3---------|-8----6---8---4-------3-------|-4---4--3--------------3---4---6---|
B|-6---5-----6------------6----|------------------------------|-----------6---5---6---------------|
G|---------------5-------------|------------------5-------5---|-----------------------------------|
D|-----------------------------|------------------------------|-----------------------------------|
A|-----------------------------|------------------------------|-----------------------------------|
E|-----------------------------|------------------------------|-----------------------------------|

   E   E   E   E   E   E   E   E     E   S  S  E   S  S  E   E   E   E     W
E|-9-----------9---8---9---8-------|-6---6--7--6---6--7--6---4---3-------|--------|
B|-----11----------------------9---|---------------------------------6---|-4------|
G|---------9-----------------------|-------------------------------------|-3------|
D|---------------------------------|-------------------------------------|-5------|
A|---------------------------------|-------------------------------------|--------|
E|---------------------------------|-------------------------------------|--------|

Play the first four measures twice as a group, then play the rest...and repeat.
Login or Register to remove this ad.