Overworld (Final Fantasy) Ukulele Tab

Submitted: Jun 05, 2019 by Binarynova (Last updated: Jun 23, 2019)

0
Download | No audio :(
Game: Final Fantasy
Composer(s): Nobuo Uematsu
Style: Transcription
Series: Final Fantasy

AutoScroll: Slow | Medium | Fast
Title: "Overworld"
Game: Final Fantasy
Platform: Nintendo Entertainment System

Composed by: Nobuo Uematsu
Tabbed by: Binarynova
Finished: Jun. 5, 2019

Tuning: Standard
Time Signature: 4/4	


    E  E  E  E  E  E  E  E   Q    Q    E  E  E  E   E  E  E  E  E   E  E  E
A||------------------------|-5--------(9--7--5--3-|-0)----------------------|
E||----7--5--7--8--7--5--7-|------5---------------|----8--7--8--10--8--7--8-|
C||------------------------|----------------------|-------------------------|
G||------------------------|----------------------|-------------------------|

    Q    Q    E   E  E  E   E  E  E  E   E  E  E  E   E  E  E  E  E   S S S 
A||-7--------(11--9--7--5)|----7--9--10--9--7--5--3-|-5--0--2--3--2-----0-2-|
E||------7----------------|-------------------------|-----------------4-----|
C||-----------------------|-------------------------|-----------------------|
G||-----------------------|-------------------------|-----------------------|

     Q.        E  E  E  E  E     E  E  E  E  E  E  E  E   
A||--3---------5--3--2--0-----|--5-----------------------|
E||------------------------3--|--------------10-8--7--5--|
C||---------------------------|--------------------------|
G||---------------------------|--------------------------|
Login or Register to remove this ad.