Ads

Opening Theme (Final Fantasy) Guitar Tab

Submitted: Aug 27, 2019 by guitarsvd (Last updated: Sep 04, 2019)

5
Average: 5 (4 votes)
Download | No audio :(
Game: Final Fantasy
Composer(s): Nobuo Uematsu
Style: Arrangement, Artificial harmonics
Series: Final Fantasy

AutoScroll: Slow | Medium | Fast
                                Opening Theme                                   


                                                          Cecil Chau (GuitarSVD)
Track 1



     S S  S S S  S S  S   H             Q    Q    Q    Q     
E||----------------0h-3------------||-----------------------|
B||-----------1h-3------<>1--------||--------1----3---------|
G||---------0----------------------||*--0----0----0----0----|
D||----0h-2------------------------||*--2--------------0----|
A||--3-----------------------------||---3---------2---------|
E||--------------------------------||-----------------------|


  Q    Q    Q    Q       Q    E  E  Q    Q       H        H         
--1---------0---------|-----------------------|--------------------|
--1---------0----3----|--1----0--1--3----1----|--1--------0--------|
--2----2---------0----|--2----------2----2----|--0--------0--------|
-------0--------------|-----------------------|--------------------|
--0-------------------|-----------------------|--------------------|
------------3---------|--1----------2---------|--3-----------------|


  Q    Q    Q    Q       Q    Q    Q    Q       Q    E  E  Q    Q     
------------0---------|--3---------1----0----|----------0------------|
-------3--------------|----------------------|--3----2-----3---------|
--2--------------2----|-------2--------------|------------------2----|
--3--------------2----|--0-------------------|--0--------------------|
----------------------|------------4---------|-------------3---------|
--1---------0---------|----------------------|-----------------------|


                                                       |--3--|             
  H        H             H        Q    S S S S    Q    E  E  E  Q    Q     
--0------------------||--0---------------0-1-3-|--5------------------5----|
--0--------3---------||--0--------3----3-------|--1------------------1----|
-----------0--------*||-----------0------------|--2------------------2----|
--------------------*||------------------------|--------------------------|
---------------------||------------------------|--------------------------|
--3------------------||--3---------------------|--1----1--1--1--1---------|


       |--3--|                                                            
  Q    E  E  E  Q    Q       Q    E  E  Q    Q       Q    Q    Q    Q     
--3------------------0----|--1----1--0------------|-------0----1----3----|
--1------------------1----|--3----------3----2----|--3---------3---------|
--0-----------------------|--3----------2----2----|--2-------------------|
--------------------------|-----------------------|--0-------------------|
--3----3--3--3--3---------|--1----------0---------|------------3---------|
--------------------------|-----------------------|----------------------|


       |--3--|                    |--3--|                                      
  Q    E  E  E  Q    Q       Q    E  E  E  Q    Q       Q    E  E  Q    E  E   
--6------------------6----|--5-------------5---------|--3----3--4--3----3--4--|
----------------8---------|-------------6-------6----|--1---------------------|
-------------8------------|----------7---------------|--1---------------------|
----------8---------------|-------7------------------|--1---------------------|
--6----6------------------|--5-----------------------|------------------------|
--------------------------|--------------------------|------------------------|


                                                       |--3--|               
  Q    Q    Q    Q         Q    Q    Q    Q       Q    E  E  E  E  E  E  E   
--3----1----0----------||--3----1---------1----|--3-------------------------|
--0---------0----3-----||--0---------4---------|--0-------------------------|
----------------------*||----------------------|----------------------------|
----------------------*||----------------------|----------------------------|
-----------------------||----------------------|----------------------------|
--3--------------------||--3-------------------|--3----3--3--3--3--3--3--3--|


  Q    Q    Q    Q       S S  S S S  S S  S   H          
--L----3----5----7----|----------------0h-3------------||
----------------------|-----------1h-3------<>1--------||
----------------------|---------0----------------------||
----------------------|----0h-2------------------------||
----------------------|--3-----------------------------||
--3-------------------|--------------------------------||




Duration Legend
---------------
W - whole
H - half
Q - quarter
E - 8th
S - 16th
T - 32nd
X - 64th
. - note dotted
|-n-|  - n-tuplets


Tablature Legend
----------------
L - tied note
x - dead note
g - grace note
(n) - ghost note
> - accentuded note
NH - natural harmonic
AH - artificial harmonic
TH - tapped harmonic
SH - semi harmonic
PH - pitch harmonic
h - hammer on
p - pull off
b - bend
br - bendRelease
pb - preBend
pbr - preBendRelease
brb - bendReleaseBend
\n/ - tremolo bar dip
\n - tremolo bar dive
-/n - tremolo bar Release up
/n\ - tremolo bar inverted dip
/n - tremolo bar return
-\n - tremolo bar Release down
S - shift slide
s - legato slide
/ -  slide into from below or out of upwards
\ -  slide into from above or out of downwards
~ - vibrato
W - wide vibrato
tr - trill
TP - tremolo picking
T - tapping
S - slap
P - pop
< - fade in
^ - brush up
v - brush down
Login or Register to remove this ad.