Ads

Ocean Shrine (Final Fantasy) Guitar Tab

Submitted: Mar 14, 2013 by Basisti94

5
Average: 5 (7 votes)
Download | Listen
Game: Final Fantasy
Composer(s): Nobuo Uematsu
Style: Arrangement, Fingerstyle
Series: Final Fantasy

This song is also called Underwater Palace

AutoScroll: Slow | Medium | Fast
                           Ocean Shrine
                                
Final Fantasy
Nobuo Uematsu  
Arranged for guitar by Basisti94 (Miro Laaksonen)
14.3.2013


Tempo ~ 150

     E  E  Q    Q    Q       E  E  Q    Q    Q       E  E  H.            
E||-----------------------|-----------------------|---------------------|
B||--1---------------1----|--0---------------0----|---------------------|
G||-------------2---------|--------2----0---------|--2------------------|
D||-----------------------|-----------------------|---------------------|
A||--0--0-----------------|-----------------------|---------------------|
E||-----------------------|--3--3-----------------|--1--1---------------|


  E  E  Q     Q      Q        E  E  Q    Q    Q       E  E  Q    Q    Q     
---------------------------|-----------------------|------------------1----|
---------------------------|--1----------3----1----|--0--------------------|
--L------------------------|-----------------------|--------2----0---------|
--------------------(0)----|-----------------------|-----------------------|
-------------(2)-----------|--0--0--L--------------|-----------------------|
--3--3---------------------|-----------------------|--3--3-----------------|


  E  E  H.              E  E  Q     Q      Q        E  Q    E  E  E  E  E   
--L------------------|---------------------------|-------------------------|
---------------------|---------------------------|--0----------------3-----|
--2------------------|--2------------------------|-------------5-----------|
---------------------|--------------------(0)----|--2----------------------|
---------------------|-------------(0)-----------|-------------------------|
--1--1---------------|--2--2---------------------|--4--4----4--4--4-----4--|


  E  E  E  E  E  E  E  E     E  Q    E  E  E  E  E     E  Q    E  E  Q    E   
--------------------0-----|-------------0-----1-----|--0---------------------|
--1-----0-----------------|--3----------------------|-------------1----------|
--2-----------2-----------|-------------------------|------------------------|
--------------------------|-------------------------|------------------------|
--0--0-----0--0--0-----0--|--2--2----2--2--2-----2--|--3--3----3--3--3----3--|
--------------------------|-------------------------|------------------------|


  ^                     ^                      ^                 
  H        Q    Q       Q    Q    Q    Q       W                 
-----------0---------|----------------------|-------------------|
----------------3----|--1----0---------1----|--0----------------|
--2------------------|--2---------2---------|--1----------------|
--3------------------|--0-------------------|--2----------------|
--3------------------|----------------------|-------------------|
--1------------------|----------------------|--0----------------|


  ^                                                                       
  W                   E  E  E  E  E  E  E  E     E  E  E  E  E  E  E  E   
-------------------|--------------------------|--------------------------|
--3----------------|--1-----------------1-----|--0-----------------0-----|
--1----------------|--------------2-----------|--------2-----0-----------|
--3----------------|-----2--0--2-----2-----2--|-----2-----2-----2-----2--|
-------------------|--0-----------0-----------|--2-----------2-----------|
--0----------------|--------------------------|--------------------------|


  E  E  E  E  E  E  E  E     E  E  E  E  E  E  E  E   
--------------------------|--------------------------|
--------------------------|--------------------------|
--2-----------------------|--L-----------------------|
-----2--0--2-----2--0--2--|-----2--0--2--------0--2--|
--0-----------0-----------|--2--------------2--------|
--------------------------|--------------3-----------|


  E  E  E  E  E  E  E  E     E  E  E  E  E  E  E  E   
--------------------------|--------------------1-----|
--1-----------3-----1-----|--0-----------------------|
--------------------------|--------2-----0-----------|
-----2--0--2-----2-----2--|-----2-----2-----2-----2--|
--0-----------0-----------|--2-----------2-----------|
--------------------------|--------------------------|


  E  E  E  E  E  E  E  E     E  E  E  E  E  E  E  E     E  Q    E  E  E  E  E   
--L-----------------------|--------------------------|-------------------------|
--------------------------|--------------------------|--0----------1-----3-----|
--2-----------------------|--L-----------------------|-------------------1-----|
-----2--0--2-----2--0--2--|-----0-----0--------0--2--|--2-------------2-----2--|
--0-----------0-----------|--0-----3--------0--------|-------------------------|
--------------------------|--------------2-----------|--4--4----4--4-----------|


  E  E  E  E  E  E  E  E     E  Q    E  E  E  E  E     E  Q    E  E  E  E  E   
--------------------0-----|-------------0-----1-----|--0----------------------|
--1-----0-----------------|--3----------------0-----|-------------1-----------|
--2-----------2-----2-----|----------------0-----0--|-------------------------|
-----------------2-----2--|-------------------------|-------------------------|
--0--0-----0--0-----------|--2--2----2--2-----------|--3--3----3--3-----3-----|
--------------------------|-------------------------|----------------3-----3--|

         
  ^                     ^                      ^                 
  H        Q    Q       Q    Q    Q    Q       W                 
-----------0---------|----------------------|-------------------|
----------------3----|--1----0---------1----|--0----------------|
--2------------------|--2---------2---------|--1----------------|
--3------------------|--0-------------------|--2----------------|
--3------------------|----------------------|-------------------|
--1------------------|----------------------|--0----------------|
 
              Rall.
  ^                   ^                     ^                    
  W                   H        Q    Q       Q    Q    Q    Q     
-------------------|---------------------|----------------------|
--3----------------|--1-------------1----|--0--------------0----|
--1----------------|--2--------2---------|--0----2----0---------|
--3----------------|--2------------------|--2-------------------|
-------------------|--0------------------|----------------------|
--0----------------|---------------------|--3-------------------|


  ^                     ^                    ^                   
  H        Q    Q       H        H           H        Q    Q     
---------------------|--------------------|---------------------|
---------------------|-----------0--------|--1--------3----1----|
--2------------------|--0-----------------|--2------------------|
--3-------------2----|--2-----------------|--2------------------|
--3--------3---------|--2-----------------|--0------------------|
--1------------------|--3-----------------|---------------------|


  ^                      ^                    ^                  
  Q    Q    Q    Q       H        H           W                  
-----------------1----|--------------------|-------------------||
--0-------------------|--------------------|-------------------||
--0----2----0---------|--2--------2--------|--0----------------||
--2-------------------|--3-----------------|--2----------------||
----------------------|--3-----------------|--2----------------||
--3-------------------|--1-----------------|--3----------------||




Duration Legend
---------------
W - whole
H - half
Q - quarter
E - 8th
S - 16th
T - 32nd
X - 64th
. - note dotted
|-n-|  - n-tuplets


Tablature Legend
----------------
rall.  - slowly decrease tempo
L - tied note
x - dead note
g - grace note
(n) - ghost note
> - accentuded note
NH - natural harmonic
AH - artificial harmonic
TH - tapped harmonic
SH - semi harmonic
PH - pitch harmonic
h - hammer on
p - pull off
b - bend
~ - vibrato
W - wide vibrato
T - tapping
< - fade in
^ - brush up
v - brush down
Login or Register to remove this ad.