Ocean Shrine (Final Fantasy) Guitar Tab

Submitted: Apr 18, 2011 by hashel (Last updated: Aug 25, 2011)

5
Average: 5 (2 votes)
Download | Listen
Game: Final Fantasy
Composer(s): Nobuo Uematsu
Style: 2 or more instruments, Transcription
Series: Final Fantasy

This song is also called Underwater Temple (GBA)

Click here for a video example.

AutoScroll: Slow | Medium | Fast

Here is my tab for this song, i made it from a piano sheet and i used the Bass Line made by Auriplane !

MELODY

E |----||---------------|----------------|-------|-------|----------------|
B |----||-13-------13---|--12-------12---|-------|-------|--13----15-13---|
G |----||o------14------|-----14-12------|--14L--|--14---|----------------|
D |----||o--------------|----------------|-------|-------|----------------|
A |----||---------------|----------------|-------|-------|----------------|
E |----||---------------|----------------|-------|-------|----------------|

-----------13---|--12L--|--12---|----------------|-----------12---|
--12------------|-------|-------|--12----13-15---|--13-12---------|
-----14-12------|-------|-------|----------------|--------14------|
----------------|-------|-------|----------------|----------------|
----------------|-------|-------|----------------|----------------|
----------------|-------|-------|----------------|----------------|

--------12-13---|--12------|--------12------|----------------|-------|------||
--15------------|-----13---|-----------15---|--13-12----13---|--12L--|--12--||
----------------|----------|--14------------|--------14------|-------|-----o||
----------------|----------|----------------|----------------|-------|-----o||
----------------|----------|----------------|----------------|-------|------||
----------------|----------|----------------|----------------|-------|------||


Rhythm

E |----------------||---------------------------|----------------------------|
B |----------------||---------------------------|----------------------------|
G |----------------||o---9--7--9-----9--7--9----|-----9--7--9-----9--7--9----|
D |----------------||o10----------10------------|--9-----------9-------------|
A |----------------||---------------------------|----------------------------|
E |----------------||---------------------------|----------------------------|

----------------------------|----------------------------|
----------------------------|----------------------------|
-----9--7--9-----9--7--9----|-----9--7--9-----9--7--9----|
--7-----------7-------------|--9-----------9-------------|
----------------------------|----------------------------|
----------------------------|----------------------------|

----------------------------|----------------------------|
----------------------------|----------------------------|
-----9--7--9-----9--7--9----|-----9--7--9-----9--7--9----|
--10----------10------------|--9-----------9-------------|
----------------------------|----------------------------|
----------------------------|----------------------------|

----------------------------|----------------------------|
----------------------------|----------------------------|
-----9--7--9-----9--7--9----|-----7--5--7-----7--5--7----|
--7-----------7-------------|--7-----------7-------------|
----------------------------|----------------------------|
----------------------------|----------------------------|

----------------------------|----------------------------|
--5--5-----5--5--5-----5----|--5--5-----5--5--5-----5----|
--0--0-----0--0--0-----0----|--2--2-----2--2--2-----2----|
----------------------------|----------------------------|
----------------------------|----------------------------|
----------------------------|----------------------------|

----------------------------|----------------------------|-------|-------|
--8--8-----8--8--8-----8----|--8--8-----8--8--8-----8----|-------|-------|
--4--4-----4--4--4-----4----|--5--5-----5--5--5-----5----|--2----|--2----|
----------------------------|----------------------------|--3----|--3----|
----------------------------|----------------------------|-------|--5----|
----------------------------|----------------------------|-------|-------|

-------|------||----||
-------|------||----||
--5----|--7--o||----||
--6----|--6--o||----||
--8----|--8---||----||
-------|------||----||
Login or Register to remove this ad.